Zao

Zao - Rising End The First Prophecy guitar tab

this song is in drop c so yeah

tuning is

d-

a-

f-

c-

g-

c-

the order of the song is..

intro

verse 1

verse 2

chorus

bridge

verse 3

chorus

----------------------------------------------------------------------------------------

intro repeat 12 times/verse 1 for guitar 2 which playes it 8 times

during the verse

d-----------------------------------

a-----------------------------------

f-----------------------------------

c-----------------------------------

g-----------------------------------

c-10-0-7-0-6-0-3-0-5-0-6-0-5-0-3-0--

verse 1 (repeat 10 times) and verse 2(repeat 7 times) for guitar 1

d-----------------------

a-----------------------

f-----------------------

c-x-x-7-6-3-6-7-6-3---0-

g-x-x-7-6-3-6-7-6-3---0-

c-x-x-7-6-3-6-7-6-3---0-

verse 2(repeat 7 times) guitar 2

d-----------------------

a-----------------------

f-----------------------

c-x-x-7-6-3-6-7-6-3---0-

g-x-x-7-6-3-6-7-6-3---0-

c-x-x-7-6-3-6-7-6-3---0-

chorus (play two times) guitar 1

d--------------------------------------------------

a--------------------------------------------------

f--------------------------------------------------

c-0-0--0-0--0--7-7-7-7-6-6--3-3-3-3-2-2--0-2-3-2-0-

g-0-0--0-0--0--5-5-5-5-4-4--3-3-3-3-2-2--0-2-3-2-0-

c-0-0--0-0--0--0-0-0-0-0-0--3-3-3-3-2-2--0-2-3-2-0-

* * * * * * * * * *

chorus (play two times) guitar 2

d------------------------------------------------------------

a------------------------------------------------------------

f------------------------------------------------------------

c-0-0-(6vibrato)-0-0--0--7-7-7-7-6-6--3-3-3-3-2-2--0-2-3-2-0-

g-0-0------------0-0--0--5-5-5-5-4-4--3-3-3-3-2-2--0-2-3-2-0-

c-0-0------------0-0--0--0-0-0-0-0-0--3-3-3-3-2-2--0-2-3-2-0-

* * * * * * * * * *

bridge (repeat 8 times) guitar 1

d------------------------------

a------------------------------

f-------------------77\6--77/8-

c-0-0--6-6--0-0-0---77\6--77/8-

g-0-0--4-4--0-0-0---55\4--55/6-

c-0-0-------0-0-0--------------

* * * *

bridge still (repeat 4 times) guitar 1

d-------------

a-------------

f-------------

c-00000---7-7-

g-00000---5-5-

c-00000-------

****

verse 3 (repeat 4 times) guitar 1

d-------------

a-------------

f-77\\6--77/8-

c-77\\6--77/8-

g-55\\4--55/6-

c-------------

verse 3 still guitar 1

d------------------------------

a------------------------------

f-77\\6--88\\7-----------------

c-77\\6--88\\7-{repeat4 times}-----0-0-----0-0----0-0----0vibrato

g-55\\4--66\\5---------------------0-0-----0-0----0-0----0vibrato

c------------------------------0-0-----0-0----0-0-----0vibrato

thats it, i know its right

Get this song at:  amazon.com

Share your thoughts

0 Comments found