Zao

Zao - Rising End guitar tab

-------------------------------------------------------------------------------

The Rising End - ZAO

-------------------------------------------------------------------------------

Tuning:Drop C

Use Heavy Distortion

-Intro:

e|--------------------------------|

B|--------------------------------|

G|--------------------------------|

D|--------------------------------| Guitar 1 (only) 4x

A|-3p0----------------------------|

E|----7p0-6p0-3p0-6p0-7p0-6p0-3p0-|

pm ------ --- --- --- --- --- ---

Drums Come In...

e|--------------------------------|

B|--------------------------------|

G|--------------------------------|

D|--------------------------------| Guitar 1 8x

A|-3p0----------------------------|

E|----7p0-6p0-3p0-6p0-7p0-6p0-3p0-|

e|--------------------------------| |--------------------------------|

B|--------------------------------| |--------------------------------|

G|--------------------------------| |--------------------------------|

D|--------------------------------| Guitar 2 4x |-5p0----------------------------| Guitar 2 4x

A|-3p0----------------------------| |----7p0-6p0-3p0-6p0-7p0-6p0-3p0-|

E|----7p0-6p0-3p0-6p0-7p0-6p0-3p0-| |--------------------------------|

-Bridge (leading to verse)

e|---------------------------------------------------------------------|

B|---------------------------------------------------------------------|

G|---------------------------------------------------------------------|

D|-00-7-6-3-6-7-6-3-00-7-6-3-6-7-6-3-00-7-6-3-6-7-6-3-00-7-6-3-6-7-6-3-| Guitar 1

A|-00-7-6-3-6-7-6-3-00-7-6-3-6-7-6-3-00-7-6-3-6-7-6-3-00-7-6-3-6-7-6-3-|

E|-00-7-6-3-6-7-6-3-00-7-6-3-6-7-6-3-00-7-6-3-6-7-6-3-00-7-6-3-6-7-6-3-|

e|---------------------------------------------------------------------|

B|---------------------------------------------------------------------|

G|---------------------------------------------------------------------|

D|-00---------------00---------------00---------------00-0-0-0-0-00000-| Guitar 2

A|-00---------------00---------------00---------------00-0-0-0-0-00000-|

E|-00---------------00---------------00---------------00-0-0-0-0-00000-|

-Verse

e|---------------------------------------------------------------------|

B|---------------------------------------------------------------------|

G|---------------------------------------------------------------------|

D|-00-7-6-3-6-7-6-3-00-7-6-3-6-7-6-3-00-7-6-3-6-7-6-3-00-7-6-3-6-7-6-3-| Guitar 1 8x

A|-00-7-6-3-6-7-6-3-00-7-6-3-6-7-6-3-00-7-6-3-6-7-6-3-00-7-6-3-6-7-6-3-| Guitar 2 4x

E|-00-7-6-3-6-7-6-3-00-7-6-3-6-7-6-3-00-7-6-3-6-7-6-3-00-7-6-3-6-7-6-3-|

e|---------------------------------------------------------------------|

B|---------------------------------------------------------------------|

G|---------------------------------------------------------------------|

D|-000------000-000----7-6-3-6-7-6-3-000------000-000----7-6-3-6-7-6-3-| Guitar 2 4x

A|-000------000-000----7-6-3-6-7-6-3-000------000-000----7-6-3-6-7-6-3-|

E|-000------000-000----7-6-3-6-7-6-3-000------000-000----7-6-3-6-7-6-3-|

e|--------------------------------|

B|--------------------------------|

G|--------------------------------|

D|--------------------------------| Guitar 1 8x

A|-3p0----------------------------|

E|----7p0-6p0-3p0-6p0-7p0-6p0-3p0-|

e|--------------------------------| |--------------------------------|

B|--------------------------------| |--------------------------------|

G|--------------------------------| |--------------------------------|

D|--------------------------------| Guitar 2 4x |-5p0----------------------------| Guitar 2 4x

A|-3p0----------------------------| |----7p0-6p0-3p0-6p0-7p0-6p0-3p0-|

E|----7p0-6p0-3p0-6p0-7p0-6p0-3p0-| |--------------------------------|

e|---------------------------------------------------------------------|

B|---------------------------------------------------------------------|

G|---------------------------------------------------------------------|

D|-00-7-6-3-6-7-6-3-00-7-6-3-6-7-6-3-00-7-6-3-6-7-6-3-00-7-6-3-6-7-6-3-| Guitar 1 8x

A|-00-7-6-3-6-7-6-3-00-7-6-3-6-7-6-3-00-7-6-3-6-7-6-3-00-7-6-3-6-7-6-3-| Guitar 2 4x

E|-00-7-6-3-6-7-6-3-00-7-6-3-6-7-6-3-00-7-6-3-6-7-6-3-00-7-6-3-6-7-6-3-|

e|---------------------------------------------------------------------|

B|---------------------------------------------------------------------|

G|---------------------------------------------------------------------|

D|-000------000-000----7-6-3-6-7-6-3-000------000-000----7-6-3-6-7-6-3-| Guitar 2 4x

A|-000------000-000----7-6-3-6-7-6-3-000------000-000----7-6-3-6-7-6-3-|

E|-000------000-000----7-6-3-6-7-6-3-000------000-000----7-6-3-6-7-6-3-|

-Chorus

e|------------------------------------------------------------|

B|------------------------------------------------------------|

G|------------------------------------------------------------|

D|-0--------00--------00--0-7-7-7-7-6-6--3-3-3-3-2-2--0-2-3-2-| Guitar 1 4x

A|-0--------00--------00--0-5-5-5-5-4-4--3-3-3-3-2-2--0-2-3-2-|

E|-0--------00--------00--0--------------3-3-3-3-2-2--0-2-3-2-|

e|------------------------------------------------------------|

B|------------------------------------------------------------|

G|--------------------------5-5-5-5-4-4-----------------------|

D|-0--------00--------00--0-3-3-3-3-2-2--3-3-3-3-2-2--0-2-3-2-| Guitar 2 2x

A|-0--------00--------00--0--------------3-3-3-3-2-2--0-2-3-2-|

E|-0--------00--------00--0--------------3-3-3-3-2-2--0-2-3-2-|

e|------------------------------------------------------------|

B|------------------------------------------------------------|

G|--------------------------5-5-5-5-4-4-----------------------|

D|-0-6~~~~~~~~~~~~~~~~~~~-0-3-3-3-3-2-2--3-3-3-3-2-2--0-2-3-2-| Guitar 2 2x

A|-0----------------------0--------------3-3-3-3-2-2--0-2-3-2-|

E|-0----------------------0--------------3-3-3-3-2-2--0-2-3-2-|

-Fill(leading to bridge)

e|---------------|

B|---------------|

G|---------------|

D|-0-0--6-6--0-0-| Guitar 1 1x

A|-0-0--5-5--0-0-|

E|-0-0-------0-0-|

-Bridge

e|--------------|

B|--------------|

G|--------------|

D|-0-0-8-0-0-10-| Guitar 1 8x

A|-0-0-7-0-0-9--|

E|-0-0---0-0----|

e|--------------|

B|--------------|

G|--------------|

D|-0-0---0-0----| Guitar 2 8x

A|-0-0---0-0----|

E|-0-0---0-0----|

e|--------------|

B|--------------|

G|--------------|

D|-0-0---0-0----| Guitar 1 4x

A|-0-0---0-0----|

E|-0-0---0-0----|

e|--------------|

B|--------------|

G|--------------|

D|-0-0---0-0----| Guitar 2 4x

A|-0-0---0-0----|

E|-0-0---0-0----|

-Chorus

e|------------------------------------------------------------|

B|------------------------------------------------------------|

G|------------------------------------------------------------|

D|-0--------00--------00--0-7-7-7-7-6-6--3-3-3-3-2-2--0-2-3-2-| Guitar 1 4x

A|-0--------00--------00--0-5-5-5-5-4-4--3-3-3-3-2-2--0-2-3-2-|

E|-0--------00--------00--0--------------3-3-3-3-2-2--0-2-3-2-|

e|------------------------------------------------------------|

B|------------------------------------------------------------|

G|--------------------------5-5-5-5-4-4-----------------------|

D|-0--------00--------00--0-3-3-3-3-2-2--3-3-3-3-2-2--0-2-3-2-| Guitar 2 2x

A|-0--------00--------00--0--------------3-3-3-3-2-2--0-2-3-2-|

E|-0--------00--------00--0--------------3-3-3-3-2-2--0-2-3-2-|

e|------------------------------------------------------------|

B|------------------------------------------------------------|

G|--------------------------5-5-5-5-4-4-----------------------|

D|-0-6~~~~~~~~~~~~~~~~~~~-0-3-3-3-3-2-2--3-3-3-3-2-2--0-2-3-2-| Guitar 2 2x

A|-0----------------------0--------------3-3-3-3-2-2--0-2-3-2-|

E|-0----------------------0--------------3-3-3-3-2-2--0-2-3-2-|

| / slide up

| \\ slide down

| h hammer-on

| p pull-off

| ~ vibrato

| + harmonic

| x Mute note

===============================================================================Added by tabs-database.com and our distinguished partners

Get this song at:  amazon.com sheetmusicplus.com

Share your thoughts

0 Comments found