Zao

Zao - Rising End Bass guitar tab

F:---------------------------------------------------------------|

C:---------------------------------------------------------------|

G:---------------------------------------------------------------|

C:-----00---0--00---00---0-00--00--0-00--0-0-00--00-00-00--------| intro

F:-----------------------------------------------------|

C:-----------------------------------------------------|

G:-----------------------------------------------------|

C:----7-6-3-6-7-6-3------------------------------------|x4 2nd riff

F:----------------------------------------------------------------------|

C:----------------------------------------------------------------------|

G:----------------------------------------------------------------------|

C:-00--0---0--7-6-3-6-7-6-3-00--0---0--7-6-3-6-7-6-3-00--0---0----------|

3rd riff

F:-------------------------------------------------------------------------|

C:-------------------------------------------------------------------------|

G:--3-0--------------------------------------------------------------------|

C:------7-0-6-0-3-0-6-0-7-0-6-0-3-0----------------------------------------|x8

4th riff

go back into 2nd riff

then 3rd riff

F:---------------------------------------------------------------------------|

C:---------------------------------------------------------------------------|

G:---------------------------------555544------------------------------------|

C:-7-6-3-6--7--6--3--0--00--00--0---------333322-0-2-3-2-0-00-00-0--------x--|4 from

(5th riff)

F:---------------------------------------------------------------------------|

C:---------------------------------------------------------------------------|

G:---------------------------------------------------------------------------|guitar fill

C:--0-0-0-0-0-0-0-0-00-0-0-0-0-0-0-0-0-0-0-0-0-0-0-0-0-0-0-0-0---------------|

(6th riff)

back to 5th riff till song is doneAdded by tabs-database.com and our distinguished partners

Get this song at:  amazon.com sheetmusicplus.com

Share your thoughts

0 Comments found