Zao

Zao - Ravage Ritual guitar tab

Artist: Zao

Song: Ravage Ritual

Album: Where Blood and Fire Bring Rest

I remember the first war

The way the sky burned

The faces of angels destroyed

I saw a third of Heaven's legion banished

And the creation fell

Intro:

Lead Guitar: 5x

c|-10-8-8-7-5-7-8-7-5-7-8-7-5-7-8-7-|

I stood with my brothers and watched lucifer fall

But now, my brothers aren't my brothers

Rythem Guitar:

F|------|------4x-----------|----7-----|

c|-0----|-0-0-0--1-1-1-1-0--|--0-7-6-1-|

G|-0-9x-|-0-0-0--1-1-1-1-0--|--0-5-6-1-|

C|-0----|-0-0-0--1-1-1-1-0--|--0---6-1-|

Verse:

Lead Guitar:

G|--------------------7-6-2-5-2-3-0-----------------|

D|-0-7-6-2-5-2-3-0--0---------------0-7-6-2-5-2-3-0-|

(at the same time rythem guitar plays this a few times)

D|-0--0-0-0--0--0-0-0-|

A|-0--0-0-0--0--0-0-0-|

E|-0--0-0-0--0--0-0-0-|

Bridge Lead: 4x

D|-10-8-8-7-5-7-8-7-5-7-8-7-5-7-8-7-|

Lead Guitar (play until ending)

G|--------------------7-6-2-5-2-3-0-----------------|

D|-0-7-6-2-5-2-3-0--0---------------0-7-6-2-5-2-3-0-|

(at the same time rythem guitar plays this until the ending)

D|-0--0-0-0--0--0-0-0-|

A|-0--0-0-0--0--0-0-0-|

E|-0--0-0-0--0--0-0-0-|

Ending:

Lead: 2x

D|-10-8-8-7-5-7-8-7-5-7-8-7-5-7-8-7-|

Rythem: 2x

G|-------------------------7-----|

D|-0-0-0-0--1-1-1-1-0----0-7-6-1-|

A|-0-0-0-0--1-1-1-1-0----0-5-6-1-|

E|-0-0-0-0--1-1-1-1-0----0---6-1-|

Shun. . .

-=L:iberat Te Ex Inferis=-

Get this song at:  amazon.com sheetmusicplus.com

Share your thoughts

0 Comments found