Zao

Zao - Race Of Standing Still guitar tab

Song: The Race of Standing Still

Artist: Zao

Album: Self-Titled

Transcribed by: BJ Woodward (sk8ing_woody@hotmail.com)

Dropped C Tuning

Intro and Verse: Intro Clean, Verse Distortion

E----------------------------------------------------------|

B----------------------------------------------------------|

G-3-3-3-3--3--3-3-3-3--3--10-10-10-10--10--10-10-10-10--10-|

D----------------------------------------------------------|

A-1-1-1-1--1--1-1-1-1--1---8--8--8--8---8---8--8--8--8---8-|

E-0-0-0-0--0--0-0-0-0--0---0--0--0--0---0---0--0--0--0---0-|

E------------------------------------------------------|

B------------------------------------------------------|

G-3-3-3-3--3--3-3-3-3--3--10-10-10-10---9--9-9-9-9--10-|

D------------------------------------------------------|

A-1-1-1-1--1--1-1-1-1--1---8--8--8--8---8--7-7-7-7---8-|

E-0-0-0-0--0--0-0-0-0--0---0--0--0--0---0--0-0-0-0---0-|

E--------------------------------------------------------------------|

B--------------------------------------------------------------------|

G-15-15-15-15--15--15-15-15-15--15--10-10-10-10--10--10-10-10-10--10-|

D--------------------------------------------------------------------|

A-13-13-13-13--13--13-13-13-13--13---8--8--8--8---8---8--8--8--8---8-|

E--0--0--0--0---0---0--0--0--0---0---0--0--0--0---0---0--0--0--0---0-|

E----------------------------------------------------0-0-0-0-----|

B----------------------------------------------------------------|

G-15-15-15-15--15--15-15-15-15--15--10-10-10-10---9--9-9-9-9--10-|

D----------------------------------------------------------------|

A-13-13-13-13--13--13-13-13-13--13---8--8--8--8---8--7-7-7-7---8-|

E--0--0--0--0---0---0--0--0--0---0---0--0--0--0---0--0-0-0-0---0-|

Riff 2: Palm mute during "I'm racing, racing towards it?"

E----------------------------------|

B----------------------------------|

G----------------------------------|

D-0-0--0-0-0-0-0--0-0-0--0-0-0-0-0-|

A-0-0--0-0-0-0-0--0-0-0--0-0-0-0-0-|

E-0-0--0-0-0-0-0--0-0-0--0-0-0-0-0-|

End riff:

E-----------------------------------------------------|

B-----------------------------------------------------|

G------------------------------------15-14--14--10--9-|

D-0-0--(0-0-0-0-)-0--0-0--(0-0-0-0-)------------------|

A-0-0--(0-0-0-0-)-0--0-0--(0-0-0-0-)-13-12--12---8--7-|

E-0-0--(0-0-0-0-)-0--0-0--(0-0-0-0-)------------------|

Hold the C (000xxx) to end

Get this song at:  amazon.com

Share your thoughts

0 Comments found