Zao

Zao - Praise The War Machine guitar tab

Tabbed by: Chris

Email: webmaster at tabs-database.com.com

Tuning: Drop C (C-G-C-F-A-D)

This is the original tab for both lead and rythym guitars.

Gtr. 1

|-10--------13---------10--------13--------------------|

|---11-10-11--11-10-11---11-10-11--11-10-11------------|

|------------------------------------------------------| x2

|------------------------------------------------------|

|------------------------------------------------------|

|------------------------------------------------------|

Gtr. 2

|------------------------------------------------------|

|------------------------------------------------------|

|------------------------------------------------------| x2

|-12-12-12-12-12-12-12-12-12-12-12-12-12-12-12-12------|

|-12-12-12-12-12-12-12-12-12-12-12-12-12-12-12-12------|

|-12-12-12-12-12-12-12-12-12-12-12-12-12-12-12-12------|

Gtr. 1

|-9---------12----------9----------12-------------------|

|--11-10-11---11-10-11----11-10-11---11-10-11-----------|

|-------------------------------------------------------|

|-------------------------------------------------------|

|-------------------------------------------------------|

|-------------------------------------------------------|

Gtr. 2

|-------------------------------------------------------|

|-------------------------------------------------------|

|-------------------------------------------------------|

|-1-1-1-1-1-1-1-1-1-1-1-1-1-1-1-1-----------------------|

|-1-1-1-1-1-1-1-1-1-1-1-1-1-1-1-1-----------------------|

|-1-1-1-1-1-1-1-1-1-1-1-1-1-1-1-1-----------------------|

Gtr. 1

|-9--------12--------7-9-10-7h9h10p7-9-10-12-----------|

|--11-10-11--11-10-11----------------------------------|

|------------------------------------------------------|

|------------------------------------------------------|

|------------------------------------------------------|

|------------------------------------------------------|

Gtr. 2

|------------------------------------------------------|

|------------------------------------------------------|

|------------------------------------------------------|

|-7-7-7-7-7-7-7-7-7-7-7-7-7-7-7-7----------------------|

|-7-7-7-7-7-7-7-7-7-7-7-7-7-7-7-7----------------------|

|-7-7-7-7-7-7-7-7-7-7-7-7-7-7-7-7----------------------|

Those are the verse riffs. Play all of them twice in the same order before the chorus.

|------------------------------------------------------|

|------------------------------------------------------|

|------------------------------------------------------| x3

|-5h6-6-0---0-5h6-6-0---0-5h6-0-0----------------------|

|-5h6-6-0---0-5h6-6-0---0-5h6-0-0----------------------|

|-5h6-6-0---0-5h6-6-0---0-5h6-0-0----------------------|

. . . .

Gtr. 1

|------------------------------------------------------|

|------------------------------------------------------|

|------------------------------------------------------|

|-5h6-6-0---0-5h6--------------------------------------|

|-5h6-6-0---0-5h6--------------------------------------|

|-5h6-6-0---0-5h6-2*/9*--------------------------------|

.

Gtr. 2

|------------------------------------------------------|

|------------------------------------------------------|

|------------------------------------------------------|

|-5h6-6-0---0-5h6--------------------------------------|

|-5h6-6-0---0-5h6-9*\\2*--------------------------------|

|-5h6-6-0---0-5h6--------------------------------------|

.

The slide here indicate a slide over harmonics. Touch the string with your finger over

indicated fret, but do not press down. Pick sixteenth notes as you slide your finger

right above each fret from 2 up to 9, or 9 down to 2.

|--------------------------------------------------------------|

|--------------------------------------------------------------|

|--------------------------------------------------------------|

|-5h6-6-0---0-5h6-6-0---0-5h6-0-0-5h6-6-0---0-5h6--------------|

|-5h6-6-0---0-5h6-6-0---0-5h6-0-0-5h6-6-0---0-5h6--------------|

|-5h6-6-0---0-5h6-6-0---0-5h6-0-0-5h6-6-0---0-5h6-00000---00000|

. . . . . ..... .....

Repeat the verse.

The second chorus, it varies two parts, but is otherwise exactly the same.

|---------------------------------------------------------------|

|---------------------------------------------------------------|

|---------------------------------------------------------------| x3

|-5h6-6-0---0-5h6-6-0---0-5h6-0-0-------------------------------|

|-5h6-6-0---0-5h6-6-0---0-5h6-0-0-------------------------------|

|-5h6-6-0---0-5h6-6-0---0-5h6-0-0-------------------------------|

. . . .

|---------------------------------------------------------------|

|---------------------------3*----------------------------------|

|---------------------------3*----------------------------------|

|-5h6-6-0---0-5h6-----------3*----------------------------------|

|-5h6-6-0---0-5h6-----------------------------------------------|

|-5h6-6-0---0-5h6--000000000------------------------------------|

. .........

|---------------------------------------------------------------|

|---------------------------------------------------------------|

|---------------------------------------------------------------| x4

|-5h6-6-0---0-5h6-6-0---0-5h6-0-0-------------------------------|

|-5h6-6-0---0-5h6-6-0---0-5h6-0-0-------------------------------|

|-5h6-6-0---0-5h6-6-0---0-5h6-0-0-------------------------------|

. . . .

|---------------------------------------------------------------|

|---------------------------------------------------------------|

|---------------------------------------------------------------| x3

|---------------------------------------------------------------|

|---------------------------------------------------------------|

|-0000000000000000-1h4p01h4p01h4p01h4p0-------------------------|

................

I won't tab out the second guitar for this part, because all he plays is an open C chord

time the screamer and drummer come in.

|---------------------------------------------------------------|

|---------------------------------------------------------------|

|----------------------------------3*---------------------------| x1

|----------------------------------3*---------------------------|

|----------------------------------3*---------------------------|

|-0000000000000000-1h4p01h4p0-3*br------------------------------|

................

|---------------------------------------------------------------|

|---------------------------------------------------------------|

|---------------------------------------------------------------|

|---------------------------------------------------------------|

|-0------0------0-----------------------------------------------|

|-0-0000-0-00-0-0-00-1h4p01h4p01h4p01h4p0-----------------------|

.... .. . ..

|---------------------------------------------------------------|

|---------------------------------------------------------------|

|---------------------------------------------------------------|

|---------------------------------------------------------------|

|-0------0------0----6----8----6-5+b----------------------------|

|-0-0000-0-00-0-0-00-6-00-8-00-6--------------------------------|

.... .. . .. .. ..

|---------------------------------------------------------------|

|---------------------------------------------------------------|

|---------------------------------------------------------------|

|---------------------------------------------------------------|

|-0------0------0-----------------------------------------------|

|-0-0000-0-00-0-0-00-1h4p01h4p01h4p01h4p0-----------------------|

.... .. . ..

|---------------------------------------------------------------|

|---------------------------------------------------------------|

|---------------------------------------------------------------|

|------------------------------5+b------------------------------|

|-0------0------0----6-8-6-5-3----------------------------------|

|-0-0000-0-00-0-0-00-6-8-6-5-3----------------------------------|

.... .. . .. . . .

|---------------------------------------------------------------|

|---------------------------------------------------------------|

|---------------------------------------------------------------|

|-0--0--0--0----------------------------------------------------|

|-0--0--0--0----------------------------------------------------|

|-0--0--0--0--1h4p01h4p01h4p01h4p0------------------------------|

|---------------------------------------------------------------|

|---------------------------------------------------------------|

|---------------------------------------------------------------|

|-0--0--0--0--6----8----6---------------------------------------|

|-0--0--0--0--6----8----6---5+b---------------------------------|

|-0--0--0--0--6-00-8-00-6-00------------------------------------|

.. .. ..

|---------------------------------------------------------------|

|---------------------------------------------------------------|

|---------------------------------------------------------------|

|-0--0--0--0----------------------------------------------------|

|-0--0--0--0----------------------------------------------------|

|-0--0--0--0--1h4p01h4p01h4p01h4p0------------------------------|

|---------------------------------------------------------------|

|---------------------------------------------------------------|

|---------------------------------------------------------------|

|-0--0--0--0--6-8-6-5-3-5+b-------------------------------------|

|-0--0--0--0--6-8-6-5-3-----------------------------------------|

|-0--0--0--0--6-8-6-5-3-----------------------------------------|

. . .

|---------------------------------------------------------------|

|---------------------------------------------------------------|

|---------------------------------------------------------------|

|---------------------------------------------------------------|

|-0----0----0---------------------------------------------------|

|-0-00-0-00-0-0-1h4p01h4p01h4p01h4p0----------------------------|

.. .. .

|---------------------------------------------------------------|

|---------------------------------------------------------------|

|---------------------------------------------------------------|

|---------------------------------------------------------------|

|-0----0----0---6----8----6---5+b-------------------------------|

|-0-00-0-00-0-0-6-00-8-00-6-00----------------------------------|

.. .. . .. .. ..

|---------------------------------------------------------------|

|---------------------------------------------------------------|

|---------------------------------------------------------------|

|---------------------------------------------------------------|

|-0----0----0---------------------------------------------------|

|-0-00-0-00-0-0-1h4p01h4p01h4p01h4p0----------------------------|

.. .. .

|---------------------------------------------------------------|

|---------------------------------------------------------------|

|---------------------------------------------------------------|

|-------------------------5+b-----------------------------------|

|-0----0----0---6-8-6-5-3---------------------------------------|

|-0-00-0-00-0-0-6-8-6-5-3---------------------------------------|

.. .. . . . .

|---------------------------------------------------------------|

|---------------------------------------------------------------|

|---------------------------------------------------------------|

|---------------------------------------------------------------|

|-0------0------0-----------------------------------------------|

|-0-0000-0-0000-0-00-1h4p01h4p01h4p01h4p0-----------------------|

|---------------------------------------------------------------|

|---------------------------------------------------------------|

|---------------------------------------------------------------|

|---------------------------------------------------------------|

|-0------0------0----6----8----6---5+b--------------------------|

|-0-0000-0-0000-0-00-6-00-8-00-6-00-----------------------------|

|---------------------------------------------------------------|

|---------------------------------------------------------------|

|---------------------------------------------------------------|

|---------------------------------------------------------------|

|-0------0------0-----------------------------------------------|

|-0-0000-0-0000-0-00-1h4p01h4p01h4p01h4p0-----------------------|

|---------------------------------------------------------------|

|---------------------------------------------------------------|

|---------------------------------------------------------------|

|------------------------------5+b------------------------------|

|-0------0------0----6-8-6-5-3----------------------------------|

|-0-0000-0-0000-0-00-6-8-6-5-3----------------------------------|

. . .

|---------------------------------------------------------------|

|---------------------------------------------------------------|

|---------------------------------------------------------------|

|--------------1/4--------------7-9-6---------------------------|

|---------0----1/4-0-------0----7-9-6---------------------------|

|-000000000000-1/4-000000000000-7-9-6---------------------------|

This fades out in the end. The lead guitar plays dissonant chords over this once the

fades out completely, but I'm not sure what they are. I'll update it soon.

Great song, and other than the artificial harmonics, which come in time, it's a pretty

song. Enjoy!

Tab Legend:

5+ = artificial harmonic

3* = natural harmonic

h = hammer on

p = pull off

b = bend

br = bend and release

/ = slide up

\\ = slide down

. = palm muteAdded by tabs-database.com and our distinguished partners

Get this song at:  amazon.com sheetmusicplus.com

Share your thoughts

0 Comments found