Zao

Zao - Parade Of Chaos guitar tab

Song: Parade of Choas

Artist: Zao

Album: Forgot

Tuning: Low to High: (C, G, C, F, A, D)

E-mail: MeTaLisLiFe@hotmail.com

Tabbed by: David Michalek

Comments: Great song.

Slide down:

Slide up: /

Intro/Chorus

D|------------------------------------------------------------

A|------------------------------------------------

F|--54-------54-------54-------54-------------

C|--54-4-5-2-54-4-5-2-54-4-5-2-54-4-5-2-------

G|--32-4-5-2-32-4-5-2-32-4-5-2-32-4-5-2-------

C|------4-5-2-----4-5-2-----4-5-2-----4-5-2-------

Verse

D|------------------------------------------------

A|------------------------------------------------

F|--5-5-5-5-5-5-5-5-------------------------------

C|--5-5-5-5-5-5-5-5-2-2-2-2-----------------------

G|--3-3-3-3-3-3-3-3-2-2-2-2-----------------------

C|------------------2-2-2-2-4-2-4-2-5-4-2---------

Bridge

D|------------------------------------------------------------

A|------------------------------------------------------------

F|------------------------------------------------------------

C|------------------------------------------------------------

G|------------------------------------------------------------

C|--2-2-4--2-2-5--2-2-4--2-4-5-2-2----------------------------

Outro

D|------------------------------------------------------------

A|------------------------------------------------------------

F|------------------------------------------------------------

C|--2-2--4--2-2--5--2-2--5/6----------------------------------

G|--2-2--4--2-2--5--2-2--5/6----------------------------------

C|--2-2--4--2-2--5--2-2--5/6----------------------------------

Get this song at:  amazon.com

Share your thoughts

0 Comments found