Zao

Zao - Parade Of Chaos Album guitar tab

Zao

Album: Parade Of Chaos ('2002)

Everything is Drop D

The Buzzing

Verse

e|---------------------------------------------------------------------------|

B|---------------------------------------------------------------------------|

G|---------------------------------------------------------------------------|

D|-3-2-0-2-0-2--3-2-0-2-0-2-----x2-------------------------------------------|

A|-3-2-0-2-0-2--3-2-0-2-0-2---------5---4----8---7---------------------------|

D|-3-2-0-2-0-2--3-2-0-2-0-2-----------6---5----9---8-------------------------|

e|---------------------------------------------------------------------------|

B|---------------------------------------------------------------------------|

G|---------------------------------------------------------------------------|

D|-3-2-0-2-0-2-3-2-0-2-0-2----x2---------------------------------------------|

A|-3-2-0-2-0-2-3-2-0-2-0-2--------5-6-5-6-3-4-7-8-7-8-7-8--9-10-9-10---------|

D|-3-2-0-2-0-2-3-2-0-2-0-2---------------------------------------------------|

Bridge

e|---------------------------------------------------------------------------|

B|---------------------------------------------------------------------------|

G|---------------------------------------------------------------------------|

D|-0-0-3-2---0-3-3-0-3-3---0---3--2---3-2-0-2-0-2----------------------------|

A|-0-0-3-2---0-3-3-0-3-3---0---3--2---3-2-0-2-0-2----------------------------|

D|-0-0-3-2---0-3-3-0-3-3---0---3--2---3-2-0-2-0-2----------------------------|

Outro

e|---------------------------------------------------------------------------|

B|---------------------------------------------------------------------------|

G|---------------------------------------------------------------------------|

D|-2-3-5-8-7-5-2-3-5-8-7-0-7-8-8---------------------------------------------|

A|-2-3-5-8-7-5-2-3-5-8-7-0-7-8-8---------------------------------------------|

D|-2-3-5-8-7-5-2-3-5-8-7-0-7-8-8---------------------------------------------|

Suspend/Suspension

Verse

e|---------------------------------------------------------------------------|

B|---------------------------------------------------------------------------|

G|-8--------------8----------------------------------------------------------|

D|-8--9---8-4-6-8-8---9--8-4-6-8-9-8-9-8-9-8--8-6-4-6-4-6--------------------|

A|-6--9---8-4-6-8-6---9--8-4-6-8-9-8-9-8-9-8--8-6-4-6-4-6--------------------|

D|----9---8-4-6-8-----9--8-4-6-8-9-8-9-8-9-8--8-6-4-6-4-6--------------------|

Chorus

e|---------------------------------------------------------------------------|

B|---------------------------------------------------------------------------|

G|---------------------8-----------8-----------------------------------------|

D|-4-3-4-6-8-4-3-4-6-8-8--9-8-9-8--8--9-8-8-8--------------------------------|

A|-4-3-4-6-8-4-3-4-6-8-6--9-8-9-8--6--9-8-8-8--------------------------------|

D|-4-3-4-6-8-4-3-4-6-8----9-8-9-8-----9-8-9-8--------------------------------|

Post Chorus

e|---------------------------------------------------------------------------|

B|---------------------------------------------------------------------------|

G|---------------------------------------------------------------------------|

D|-4--7--9---4-7---9----4--7---9---------------------------------------------|

A|-4--7--9---4-7---9----4--7---9---------------------------------------------|

D|-4--7--9---4-7---9----4--7---9---------------------------------------------|

Bridge

e|---------------------------------------------------------------------------|

B|---------------------------------------------------------------------------|

G|--------------------------8~~----------------------------------------------|

D|--3-9-8-3-9-8-3-9-8--x4---8~~----------------------------------------------|

A|--3-9-8-3-9-8-3-9-8-------6~~----------------------------------------------|

D|--3-9-8-3-9-8-3-9-8--------------------------------------------------------|

e|----------6---------6---------------4--------4-----------------------------|

B|----7-------7----7----7--------5------5---5----5---------------------------|

G|-8-----8-------8---------8--6----6------6--------6-------------------------|

D|------------------------------------------------------x10------------------|

A|---------------------------------------------------------------------------|

D|---------------------------------------------------------------------------|

e|---------------------------------------------------------------------------|

B|---------------------------------------------------------------------------|

G|-8--------------8----------------------------------------------------------|

D|-8--9---8-4-6-8-8---9--8-4-6-8-9-8-9-8-9-8-6-4-6-4-6-----------------------|

A|-6--9---8-4-6-8-6---9--8-4-6-8-9-8-9-8-9-8-6-4-6-4-6-----------------------|

D|----9---8-4-6-8-----9--8-4-6-8-9-8-9-8-9-8-6-4-6-4-6-----------------------|

Parade Of Chaos

Chorus

e|---------------------------------------------------------------------------|

B|---------------------------------------------------------------------------|

G|---------------------------------------------------------------------------|

D|-9-8-2-3-2--9-8-2-3-2--9-8-2-3-2--9-8-2-3-2----x2--------------------------|

A|-9-8-2-3-2--9-8-2-3-2--9-8-2-3-2--9-8-2-3-2--------------------------------|

D|-9-8-2-3-2--9-8-2-3-2--9-8-2-3-2--9-8-2-3-2--------------------------------|

Verse

(Guitar 1)

e|---------------------------------------------------------------------------|

B|---------------------------------------------------------------------------|

G|---------------------------------------------------------------------------|

D|-8-8-8-8-8-8-8-0-0-0-0-0-0--------------x2---------------------------------|

A|-8-8-8-8-8-8-8-0-0-0-0-0-0-------------------------------------------------|

D|-8-8-8-8-8-8-8-0-0-0-0-0-0-3p05p07p0---------------------------------------|

(Guitar 2)

e|---------------------------------------------------------------------------|

B|-12-12-12-12--12-12-12-12-8-8-8-8-8-8-8-12-12-12-12-12-12--8-8-8-8-8--8-8--|

G|---------------------------------------------------------------------------|

D|---------------------------------------------------------------------------|

A|---------------------------------------------------------------------------|

D|---------------------------------------------------------------------------|

Bridge

e|---------------------------------------------------------------------------|

B|---------------------------------------------------------------------------|

G|--10^-10^---------10^-10^--------------------------------------------------|

D|-----------3-5-2-----------3-5-2-------------------------------------------|

A|-----------3-5-2-----------3-5-2-------------------------------------------|

D|-----------3-5-2-----------3-5-2-------------------------------------------|

Outro

e|---------------------------------------------------------------------------|

B|---------------------------------------------------------------------------|

G|---------------------------------------------------------------------------|

D|-0-3-0-5-0-2-0-3-0-5-0-3-0-5-0-2-0-3-0-5-2---------------------------------|

A|-0-3-0-5-0-2-0-3-0-5-0-3-0-5-0-2-0-3-0-5-2---------------------------------|

D|-0-3-0-5-0-2-0-3-0-5-0-3-0-5-0-2-0-3-0-5-2---------------------------------|

Angel Without Wings

Intro

e|---------------------------------------------------------------------------|

B|---------------------------------------------------------------------------|

G|---------------------------------------------------------------------------|

D|-11-11--11-11--7-----------------------------------------------------------|

A|-9--9---9--9---5-----------------------------------------------------------|

D|--------9--9---------------------------------------------------------------|

Verse

e|---------------------------------------------------------------------------|

B|---------------------------------------------------------------------------|

G|---------------------------------------------------------------------------|

D|-2--5-12-11--2--5--12-11-2--5-12-11--2-5--12-11----------------------------|

A|-2--5-12-11--2--5--12-11-2--5-12-11--2-5--12-11----------------------------|

D|-2--5-12-11--2--5--12-11-2--5-12-11--2-5--12-11----------------------------|

Chorus

e|-----------5----------2------------5----------2----------------------------|

B|-----3-------0-----0----0----3-------0-----0----0--------------------------|

G|--4----4--------4----------4----4-------4----------------------------------|

D|---------------------------------------------------------------------------|

A|---------------------------------------------------------------------------|

D|---------------------------------------------------------------------------|

Post Chorus

e|---------------------------------------------------------------------------|

B|---------------------------------------------------------------------------|

G|---------------------------------------------------------------------------|

D|-12-9-7--5-9---------------------------------------------------------------|

A|-12-9-7--5-9--4-5-7-5-4-5-7-5-4-5-7-5-4-5-7-5------------------------------|

D|-12-9-7--5-9---------------------------------------------------------------|

Bridge

e|---------------------------------------------------------------------------|

B|---------------------------------------------------------------------------|

G|-11------------------------------------------------------------------------|

D|-11-8---alot---------------------------------------------------------------|

A|-9--8----------------------------------------------------------------------|

D|----8----------------------------------------------------------------------|

Killing Cupid

e|---------------------------------------------------------------------------|

B|-8-8-8-8-8-8---------------5-----------------------------------------------|

G|-7-7-7-7-7-7-----8-7-6-5-6-------------------------------------------------|

D|---------------0---------------10-9-12-9-10-0-3-3-3-3-3--------------------|

A|---------------0---------------10-9-12-9-10-0-3-3-3-3-3--------------------|

D|---------------0---------------10-9-12-9-10-0-3-3-3-3-3--------------------|

e|---------------------------------------------------------------------------|

B|---------------------------------------------------------------------------|

G|-----------------------------8---8--8---8---8------------------------------|

D|-9--3--9--3--9--3--9--3----------------------------------------------------|

A|-9--3--9--3--9--3--9--3----------------------------------------------------|

D|-9--3--9--3--9--3--9--3----------------------------------------------------|

e|---------------------------------------------------------------------------|

B|----------------5----------------------------------------------------------|

G|------8-7-6-5-6------------------------------------------------------------|

D|-0----------------10-9-12-9-10-0-3-3-3-3-3---------------------------------|

A|-0----------------10-9-12-9-10-0-3-3-3-3-3---------------------------------|

D|-0----------------10-9-12-9-10-0-3-3-3-3-3---------------------------------|

e|---------------------------------------------------------------------------|

B|---------------------------------------------------------------------------|

G|---------------------------------------------------------------------------|

D|-9--3--9--3--9--3--9--3----------------------------------------------------|

A|-9--3--9--3--9--3--9--3----------------------------------------------------|

D|-9--3--9--3--9--3--9--3----------------------------------------------------|

e|---------------------------------------------------------------------------|

B|---------------------------------------------------------------------------|

G|---------------------------------------------------------------------------|

D|-2-2-2-2-0-3-2-2-2-2-0-3---------------------------------------------------|

A|-2-2-2-2-0-3-2-2-2-2-0-3---------------------------------------------------|

D|-2-2-2-2-0-3-2-2-2-2-0-3---------------------------------------------------|

e|---------------------------------------------------------------------------|

B|---------------------------------------------------------------------------|

G|---------------------------------------------------------------------------|

D|-0-3-5-0-12-7-12-6-5-3-1---------------------------------------------------|

A|-0-3-5-0-12-7-12-6-5-3-1---------------------------------------------------|

D|-0-3-5-0-12-7-12-6-5-3-1---------------------------------------------------|

e|---------------------------------------------------------------------------|

B|---------------------------------------------------------------------------|

G|---------------------------------------------------------------------------|

D|-9--3--9--3--9--3--9--3------2-2-2-----------------------------------------|

A|-9--3--9--3--9--3--9--3------2-2-2-----------------------------------------|

D|-9--3--9--3--9--3--9--3------2-2-2~~~--------------------------------------|

Free The Three

e|---------------------------------------------------------------------------|

B|--------------------3*-----------------3/4*------------------2/3/5*--------|

G|---------------------------------------------------------------------------|

D|-0-0-0-0-0-0-1-2-3----0-0-0-0-0-0-1-2-3----0-0-0-0-0-0-1-2-3---------------|

A|-0-0-0-0-0-0-1-2-3----0-0-0-0-0-0-1-2-3----0-0-0-0-0-0-1-2-3---------------|

D|-0-0-0-0-0-0-1-2-3----0-0-0-0-0-0-1-2-3----0-0-0-0-0-0-1-2-3---------------|

e|-8-9-8-5-6-5-5-6-5-8-9-8-5-6-5~-8-9-8-5-6-5--5-6-8-10----------------------|

B|---------------------------------------------------------------------------|

G|---------------------------------------------------------------------------|

D|---------------------------------------------------------------------------|

A|---------------------------------------------------------------------------|

D|---------------------------------------------------------------------------|

e|---------------------------------------------------------------------------|

B|---------------------------------------------------------------------------|

G|---------------------------------------------------------------------------|

D|-0-0-3-0-7-0-3-0-5---------------------------------------------------------|

A|-0-0-3-0-7-0-3-0-5---------------------------------------------------------|

D|-0-0-3-0-7-0-3-0-5---------------------------------------------------------|

e|---------------------------------------------------------------------------|

B|---------------------------------------------------------------------------|

G|---------------------------------------------------------------------------|

D|-0-0-1-0-3-0-1-1-0-1-13-12-------------------------------------------------|

A|-0-0-1-0-3-0-1-1-0-1-13-12-------------------------------------------------|

D|-0-0-1-0-3-0-1-1-0-1-13-12-------------------------------------------------|

e|---------------------------------------------------------------------------|

B|---------------------------------------------------------------------------|

G|---------------------------------------------------------------------------|

D|-12-13-12-13-12-12-13-12-12-0----------------------------------------------|

A|-12-13-12-13-12-12-13-12-12-0----------------------------------------------|

D|-12-13-12-13-12-12-13-12-12-0----------------------------------------------|

e|---------------------------------------------------------------------------|

B|-8----7---6---5------------------------------------------------------------|

G|----7---6---5---4----------------------------------------------------------|

D|-------------------------------------------------7-------------------------|

A|-------------------------------------------------7-------------------------|

D|-------------------1-2-3-4-----------------------7-------------------------|

e|---------------------------------------------------------------------------|

B|---------------------------------------------------------------------------|

G|-2-5-----------------------------------------------------------------------|

D|-2-5---alot--------7-3-7-3-5-7-3-7--3-3/5--12-13-12--3-5-3-----------------|

A|-0-3---------------7-3-7-3-5-7-3-7--3-3/5--12-13-12--3-5-3-----------------|

D|-------------------7-3-7-3-5-7-3-7--3-3/5--12-13-12--3-5-3-----------------|

e|---------------------------------------------------------------------------|

B|---------------------------------------------------------------------------|

G|---------------------------------------------------------------------------|

D|-0-3-5-3--------6-5-5-6-5-6------------------------------------------------|

A|-0-3-5-3--5-6-5-6-5-5-6-5-6------------------------------------------------|

D|-0-3-5-3--------6-5-5-6-5-6------------------------------------------------|

Man In The Womb

e|---------------------------------------------------------------------------|

B|---------------------------------------------------------------------------|

G|---------------------------------------------------------------------------|

D|-6---9---6---9---6---9-----------------------------------------------------|

A|-6---9---6---9---6---9-----------------------------------------------------|

D|-6---9---6---9---6---9-----------------------------------------------------|

e|---------------------------------------------------------------------------|

B|---------------------------------------------------------------------------|

G|--15--11-------------------------------------------------------------------|

D|--x---x--------------------------------------------------------------------|

A|--13--9--------------------------------------------------------------------|

D|---------------------------------------------------------------------------|

Solo

e|-------18-14---------------------------------------------------------------|

B|-16-13---------------------------------------------------------------------|

G|---------------------------------------------------------------------------|

D|---------------------------------------------------------------------------|

A|---------------------------------------------------------------------------|

D|---------------------------------------------------------------------------|

A Pirate's Prayer

e|---------------------------------------------------------------------------|

B|---------------------------------------------------------------------------|

G|---------------------------------------------------------------------------|

D|-3-2-0-2-3-2-0-3-5---------------------------------------------------------|

A|-3-2-0-2-3-2-0-3-5---------------------------------------------------------|

D|-3-2-0-2-3-2-0-3-5---------------------------------------------------------|

e|---------------------------------------------------------------------------|

B|---------------------------------------------------------------------------|

G|---------------------------------------------------------------------------|

D|-10-9-8-7-11-11------------------------------------------------------------|

A|-10-9-8-7-9--9-------------------------------------------------------------|

D|-10-9-8-7------------------------------------------------------------------|

e|---------------------------------------------------------------------------|

B|---------------------------------------------------------------------------|

G|---------------------------------------------------------------------------|

D|-3-2-0-2-3-5--11-11-10-9-8-7-5---------------------------------------------|

A|-3-2-0-2-3-5--9--9--10-9-8-7-5---------------------------------------------|

D|-3-2-0-2-3-5--------10-9-8-7-5---------------------------------------------|

e|---------------------------------------------------------------------------|

B|---------------------------------------------------------------------------|

G|---------------------------------------------------------------------------|

D|-3-2-0-2-3-2-0-3-5---------------------------------------------------------|

A|-3-2-0-2-3-2-0-3-5---------------------------------------------------------|

D|-3-2-0-2-3-2-0-3-5---------------------------------------------------------|

e|---------------------------------------------------------------------------|

B|---------------------------------------------------------------------------|

G|---------------------------------------------------------------------------|

D|-3-2-0-2-3-5--11-11-10-9-8-7-5---------------------------------------------|

A|-3-2-0-2-3-5--9--9--10-9-8-7-5---------------------------------------------|

D|-3-2-0-2-3-5--------10-9-8-7-5---------------------------------------------|

e|---------------------------------------------------------------------------|

B|---------------------------------------------------------------------------|

G|---------------------------------------------------------------------------|

D|-0---0-0-0---0---0--0---0---0-----0----------------------------------------|

A|-0---0-0-0---0---0--0---0---0-----0----------------------------------------|

D|-0---0-0-0---0---0--0---0---0-----0----------------------------------------|

How Are The Weak Free

Verse

(Guitar 1)

e|---------------------------------------------------------------------------|

B|---------------------------------------------------------------------------|

G|-14--14-14-14----15-14-5--5--5----15-14------------------------------------|

D|-x---x--x--x-----x--x--x--x--x----x--x-------------------------------------|

A|-12--12-12-12----13-12-3--3--3----13-12------------------------------------|

D|---------------------------------------------------------------------------|

(Guitar 2)

e|---------------------------------------------------------------------------|

B|---------------------------------------------------------------------------|

G|---------------------------------------------------------------------------|

D|--12-12-12-12-12---3-3-3-3-3-----------------------------------------------|

A|--12-12-12-12-12---3-3-3-3-3-----------------------------------------------|

D|--12-12-12-12-12---3-3-3-3-3-----------------------------------------------|

Chorus

(Guitar 1)

e|---------------------------------------------------------------------------|

B|---------------------------------------------------------------------------|

G|--7--10-5------------------------------------------------------------------|

D|--7--10-5------------------------------------------------------------------|

A|--5--8--3------------------------------------------------------------------|

D|---------------------------------------------------------------------------|

(Guitar 2)

e|---------------------------------------------------------------------------|

B|---------------------------------------------------------------------------|

G|-6-7-7--7--9-10-10-10-10---4-5-5-5-5---------------------------------------|

D|-x-x-x--x--x-x--x--x--x----x-x-x-x-x---------------------------------------|

A|-4-5-5--5--7-8--8--8--8----2-3-3-3-3---------------------------------------|

D|---------------------------------------------------------------------------|

e|---------------------------------------------------------------------------|

B|---------------------------------------------------------------------------|

G|---------------------------------------------------------------------------|

D|--3-3--3-3-2-2-2-0---------------------------------------------------------|

A|--3-3--3-3-2-2-2-0--8-7----------------------------------------------------|

D|--3-3--3-3-2-2-2-0---------------------------------------------------------|

Get this song at:  amazon.com

Share your thoughts

0 Comments found