Zao

Zao - Ghost Psalm guitar tab

Song :The Ghost Psalm

Artist: Zao

Album: Liberate Te Ex Inferis

Transcribed by: BJ Woodward (sk8ing_woody@hotmail.com)

Tuning: Drop "C" Tuning

Verse: Parenthesis means palm mute

E-----------------------------------|

B-----------------------------------|

G-13------------13-13---------------|

D----(0-0-0-0-)-------(0-0-0-0-0-0-)|

A-11-(0-0-0-0-)-11-11-(0-0-0-0-0-0-)|

E----(0-0-0-0-)-------(0-0-0-0-0-0-)|

Bridge:

Guitar 1:

E-----------------------------------|

B-----------------------------------|

G-----------------------------------|

D-(0-0-0-0-0-0-0-0-0-0-0-0-0-0-0-0-)|

A-(0-0-0-0-0-0-0-0-0-0-0-0-0-0-0-0-)|

E-(0-0-0-0-0-0-0-0-0-0-0-0-0-0-0-0-)|

Guitar 2: 2x

E---------------------------|

B---------------------------|

G-5--7-8-7-5-7--5--7-8-7-10-|

D---------------------------|

A---------------------------|

E---------------------------|

Then Daniel and Jesse solo then play Guitar 1?s Bridge riff again.

Guitar one the stays the same and Guitar 2 plays it?s riff with slight variation: 2x

E---------------------------|

B---------------------------|

G-5--7-8-7-5-7--5--7-8-7-10-|

D---------------------------|

A-3--5-6-5-3-5--3--5-6-5--8-|

E---------------------------|

On second time both guitars play and hold:

E---|

B---|

G-9-|

D---|

A-8-|

E---|

(Verse)

Then hold the open C (000xxx) and let feedback ring.

Part 2:

Guitar 1: Clean, but with a little reverb

E---------------------------|

B---------------------------|

G---------------------3---3-|

D------1-------1------------|

A---0----0-------0-1----1---|

E-0---------0-------(0)-----|

Guitar 2 & 3: Palm mute, and play when Guitar 1 hits the A#

E-----------|

B-----------|

G-----------|

D-0-1-0-1-0-|

A-0-1-0-1-0-|

E-0-1-0-1-0-|

Later on Guitar 2 plays: sb = slight bend

E----------------------------|

B----------------------------|

G----------------------------|

D------------------0-1-0-1-0-|

A-5sb-5sb-5sb-5sb--0-1-0-1-0-|

E-0---0---0---0----0-1-0-1-0-|

Even later on Guitar 2 plays: Pick down hard on the open C notes

E-----------------------|

B-----------------------|

G-----------------------|

D-------------0-1-0-1-0-|

A-------------0-1-0-1-0-|

E-0--0--0--0--0-1-0-1-0-|

Then, while Guitar 2 plays it?s 2nd variation with added intensity; Guitar 3 plays:

E----------------------------------|

B----------------------------------|

G-7-7-7-7-7-7-8-8-10-10------------|

D------------------------0-1-0-1-0-|

A-5-5-5-5-5-5-6-6--8--8--0-1-0-1-0-|

E------------------------0-1-0-1-0-|

E------------------------------------|

B------------------------------------|

G--7-7-7-7-7-7-10-10--8-8------------|

D--------------------------0-1-0-1-0-|

A--5-5-5-5-5-5--8--8--6-6--0-1-0-1-0-|

E--------------------------0-1-0-1-0-|

End: On last open C note pick hard so it rings in and out of tune

E----------------|

B----------------|

G----------------|

D----------------|

A----------------|

E-0--0--0--0hp---|

Get this song at:  amazon.com sheetmusicplus.com

Share your thoughts

0 Comments found