Zao

Zao - Exchange guitar tab

Artist:Zao

Song:Exchange

Tuning:half step down (Eb,Ab,Db,Gb,Bb,eb)

Tabbed by: Josh T.

()=palm mute

b= bend

/=slide

h=you know what that means

Intro

e|----------------------------------------------17b*------

B|--------------------------------------------------------

G|-4-4-4h5-4--4-4-4h5-4--4-4-4h5-4------------------------

D|-2----------2----------2----------(2)(2)(2)-------------

A|-2----------2----------2----------(2)(2)(2)-------------

E|-0----------0----------0----------(0)(0)(0)-------------

*thats the really high noise the second guitar does that

e------------------------------------------------------

B-----------------------------------4------------------

G-4-4-4h5-4--4-4-4h5-4--4-4-4h5-4-4--------------------

D-2----------2----------2------------------------------

A-2----------2----------2------------------------------

E-0----------0----------0------------------------------

The next part

e---------------------------------------------------------

B---------------------------------------------------------

G---------------------------------------------------------

D-2-------2-----2-----2-----4--5--2-----2-----2-----2-5-4-

A-2-------2-----2-----2-----4--5--2-----2-----2-----2-5-4-

E-0-0*-0*-0-0-0-0-0-0-0-0-0-2--3--0-0-0-0-0-0-0-0-0-0-3-2-

*on those notes where you dont play the second fret on the 4th and 5th strings you just

release pressure but keep your finger on it and strum the strings.

e---------------------------------------------------------

B---------------------------------------------------------

G---------------------------------------------------------

D-2-----2-----2-----2-----4--5--2-2-----------------------

A-2-----2-----2-----2-----4--5--2-2-----------------------

E-0-0-0-0-0-0-0-0-0-0-0-0-2--3--0-0-----------------------

then he sings (screams) "revelation"

then just repeat "the next part" some more

Part where he talks, saying "not wanting to believe, i had a need for him...."

e|---------------------------------------------------------

B|---------------------------------------------------------

G|---------------------------------------------------------

D|---------------------------------------------------------

A|----7---8---10---8---7/8---7---8---7---5---5/7-----------

E|-0-0-0-0-0-0--0-0-0-0---0-0-0-0-0-0-0-0-0-0---00---------

repeat that some more times listen to the song

Chorus "I've found this rock, this stable place...."

e|----------------------------------------------------------

B|----------------------------------------------------------

G|----------------------------------------------------------

D|-2-2-2-2--3-3-3-3--5-5-5-5--3-3-3-3-----------------------

A|-2-2-2-2--3-3-3-3--5-5-5-5--3-3-3-3-----------------------

E|-0-0-0-0--1-1-1-1--3-3-3-3--1-1-1-1-----------------------

repeat that however many times you're supposed to

The really heavy part

e----------------------------------------------------------

B----------------------------------------------------------

G----------------------------------------------------------

D-1-1-0-4-3-1-4-3-1-4>-------------------------------------

A-1-1-0-4-3-1-4-3-1-4>-------------------------------------

E-1-1-0-4-3-1-4-3-1-4>-------------------------------------

>=do tremolo picking while sliding your finger up the fret board

I don't know how accurate that part was

The part after the heavy part

e|------------------------------------------

B|------------------------------------------

G|-----------3-----------3--------3---------

D|-(2)(2)(2)-3-(2)(2)(2)-3-(2)(2)-3---------

A|-(0)(0)(0)-1-(0)(0)(0)-1-(0)(0) 1---------

E|------------------------------------------

e-------------------------------------------------------

B-------------------------------------------------------

G------------------------------------------0------------

D-----2-2h3-0-3-2-0-2------2-2h3-0-0-3-2-0--------2-2h3-

A-------------------------------------------------------

E-0-0-----------------0-0---------------------0-0---------

e--------------------------------------------------------

B--------------------------------------------------------

G-------------------------0------------------------------

D-0-0-3-2-0-2-----2-2h3-0---3-2-0-2----------------------

A--------------------------------------------------------

E-------------0-0----------------------------------------

then repeat the chorus and then repeat the really heavy part and you're done I would type

it out but it takes to long ok cya

Get this song at:  amazon.com sheetmusicplus.com

Share your thoughts

0 Comments found