Zao

Zao - Everything You Love Will Soon Fly Away guitar tab

-------------------------------------------------------------------------------

Everything You Love - Zao

-------------------------------------------------------------------------------

Tabbed by:Bubb

Email:webmaster at tabs-database.com.com

**I'm still new at this, thought I'd try the main riffs of this song too

Just to get others more experienced than I am to finish the tab

Correct me cuz I'm sure it's not 100%....or even 75% lol.

Tuning:CGCFAD

*Riff One*

e|--------------------------------------------|

B|--------------------------------------------|

G|----7--6--10--------------------------------|

D|----x--x--x---------------------------------|

A|----5--4--8---------------------------------|

E|----------------4h7p4h7p4h6p4h6p4h5p4h5p4h5-|

*Riff Two*

e|-----------------------------|--------------------|

B|-----------------------------|--------------------|

G|-----------------------------|--------------------|

D|-----------------------------|-0-0--0-0--0-0--0-0-|

A|-----------------------------|-0-0--0-0--0-0--0-0-|

E|--0h7p0h7p0h6p0h6p0h5p0h5p0h5|-0-0--0-0--0-0--0-0-|

(x4) . . . . . . . .

That's all I got!

Plz add on and comment

| / slide up

| \\ slide down

| h hammer-on

| p pull-off

| ~ vibrato

| + harmonic

| x Mute note

===============================================================================Added by tabs-database.com and our distinguished partners

Get this song at:  amazon.com sheetmusicplus.com

Share your thoughts

0 Comments found