Zao

Zao - Ember guitar tab

Song: Ember

Band: Zao

Album: Where Blood and Fire Bring Rest

Transcribed by: BJ Woodward

Tuned in "Dropped D" tuning.

Intro: 16x after 4x, add this and stop after: 4x

E-------------| ---------------------------|

B-------------| ---------------------------|

G-------------| --7777-8888-10101010-8888--|

D--01010-0-0--| ---------------------------|

A--00000-0-0--| --5555-6666-8 8 8 8 -6666--|

D-------------| ---------------------------|

after those 4x, add this: 8x stop and do this: 4x

E-----------------| -----| ---------------------|

B-----------------| -----| ---------------------|

G--7-8-7-8--------| -----| ---------------------|

D-----------------| -----| ---1010101010101010--|

A--5-6-5-6-0-0-0--| -----| -0-------------------|

D----------0-0-0--| --12| -0-------------------|

then: 8x with this: 4x after 4x, do this: 4x

E------------| -----------| -------------|

B------------| -----------| -------------|

G------------| -----------| -------------|

D------------| --0-1-3-5--| --7-8-10-12--|

A--0-1-0-35--| -----------| -------------|

D--0-1-0-35--| -----------| -------------|

then a mellowed out part: 4x

E-----------------------|

B-----------------------|

G--7777------2222-------|

D--7777-7777-3333-7777--|

A--5555-7777-3333-5555--|

D--0000-7777-3333-5555--|

do that with this: 2x

E-------------------------------------------------------|

B-------------------------------------------------------|

G--7777-9999-10101010-7777-7777-9999-10101010-12121212--|

D-------------------------------------------------------|

A-------------------------------------------------------|

D-------------------------------------------------------|

then it goes to: 4x along with: 4x

E------------| -----------15^--|

B---------8--| ----------------|

G---------7--| ----------------|

D------------| ----------------|

A--0-1-3-5---| --7-8-10-12-----|

D--0-1-3-5---| --7-8-10-12-----|

then: 4x

E-----------|

B-----------|

G-----------|

D--0-1-3-5--|

A-----------|

D--0-1-3-5--|

the grand finale! 2x

E-------------------------------|

B-------------------------------|

G-------------------------------|

D-------------------------------|

A--0-00000-00000-0000000000000--|

D--0-00000-00000-0000000000000--|

Get this song at:  amazon.com

Share your thoughts

0 Comments found