Zao

Zao - Desire The End guitar tab

Zao

Desire the End

Liberate te ex Inferis

Dropped "C" Tuning

D|-------------------------------------|

A|-------------------------------------|

F|-------------------------------------|

C|--0--2h3--5--3--2--3--3--3--2--2--0--|

G|-------------------------------------|

C|-------------------------------------|

Guitar 2

D|---------------------------------|

A|---------------------------------|

F|---------------------------------|

C|--7-8-7-5-7-8-7-5-7-8-7-5-7-8-7^-|

G|---------------------------------|

C|---------------------------------|

Right before he starts singing without the other guitar 1x.

D|----------------------------------------|

A|----------------------------------------|

F|-----------------------2--2-----5-------|

C|---0--2h3--5--3--2--3--3--3--2--5--0----|

G|---0-------------------3--3--2--3--0----|

C|---0-------------------3--3--2--x--0----|

First and Second chorus.

D|-----------------------------------------|

A|-----------------------------------------|

F|------2--3--6--3--2--3--2--2-----5-------|

C|---0--------------------3--3--2--5--0----|

G|---0--------------------3--3--2--3--0----|

C|---0--------------------3--3--2--x--0----|

First Time:

Guitar 1

D|--------------------------------------------------------------------------5--5--|

A|--------------------------------------------------------------------------3--3--|

F|--2--2--2--2--3--3--3--3--3--5--5--5--5--5--4--4--2--2--5--5--2--2--------------|

C|--0--0--0--0--5--5--5--5--5--3--3--3--3--3--2--2--0--0--5--5--0--0--------------|

G|--0--0--0--0--5--5--5--5--5--3--3--3--3--3--2--2--0--0--3--3--0--0--------------|

C|--0--0--0--0--5--5--5--5--5--3--3--3--3--3--2--2--0--0--x--x--0--0--------------|

Clean:

Guitar 1

D|----------------------------------------------------------------------5--5--5--|

A|----------------------------------------------------------------------3--3--3--|

F|--2--2--2--2--3--3--3--3--3--5--5--5--5--5--4--4--2--2--2--2--2--2-------------|

C|--0--0--0--0--5--5--5--5--5--3--3--3--3--3--2--2--0--0--0--0--0--0-------------|

G|--0--0--0--0--5--5--5--5--5--3--3--3--3--3--2--2--0--0--0--0--0--0-------------|

C|--0--0--0--0--5--5--5--5--5--3--3--3--3--3--2--2--0--0--0--0--0--0-------------|

Guitar 2

D|---0h1-------0------0-----|

A|-3-----3-----5------5-----|

F|--------2-----------------|

C|--------------------------|

G|--------------------------|

C|--------------------------|

Guitar 1

D|---------------------------------------------|

A|---------------------------------------------|

F|---------------------------------------------|

C|--0--2h3--5--3--2--3--3--3--2--2--0----------|

G|---------------------------------------------|

C|---------------------------------------------|

Guitar 2

D|------------------------------------------|

A|------------------------------------------|

F|------------------------------------------|

C|--7-8-7-5-7-8-7-5-7-8-7-5-7-8-7^----------|

G|------------------------------------------|

C|------------------------------------------|

Third chorus.

D|--------------------------------------------------------|

A|--------------------------------------------------------|

F|--------------------------------------------------------|

C|-0*-1*-0*-0*-1*-0*-0*-0*-0*-0*-------12^----------------|

G|-0*-1*-0*-0*-1*-0*-0*-0*-0*-0*--------------------------|

C|-0*-1*-0*-0*-1*-0*-0*-0*-0*-0*--------------------------|

p= Pull off

h= Hammer

*= Palm muted

x= Muted string

^= Bend

Get this song at:  amazon.com sheetmusicplus.com

Share your thoughts

0 Comments found