Zao

Zao - Autopsy guitar tab

(heavy distortion)

Intro:

F-9-9-9--10-10-10--9-9-9--10-10-10---------------------------

C----------------------------------7-7-7--7-7-7--3-3-3--3-3-3

G-7-7-7---7--7--7--7-7-7---7--7--7-7-7-7--5-7-7--3-3-3--3-3-3

C----------------------------------5-5-5--5-5-5--1-1-1--1-1-1

F-9-9-9-10-10-10--9-9-9-10-10-10

C-------------------------------

G-7-7-7--7--7--7--7-7-7--7--7--7

1st Verse:

F-9-9-10--9--5---9-9-10--12-12-

C------------------------------

G-7-7--8--7--3---7-7--8--10-10-

And what shall I do I try to speak the words but...

Lead Guitar

F-9-9-9-9-9-9--5-5-5-5-5-5--9-9-9-9-9-9--5-5-5-5/17-17-

C------------------------------------------------------

G-7-7-7-7-7-7--3-3-3-3-3-3--7-7-7-7-7-7--3-3-3-3/15-15-

Bridge:

F-17--19--21

C-15--17--19

G-15--17--19

Chorus:

F------------------------------------9-9-9-9------10-10-10-10

C-1-1--h5-5-5-5--1-1--h6-6-6-6--1-1--9-9-9-9--1-1-10-10-10-10

G-1-1--h5-5-5-5--1-1--h6-6-6-6--1-1--7-7-7-7--1-1--8--8--8--8

C-1-1--h5-5-5-5--1-1--h6-6-6-6--1-1-----------1-1------------

Verse:

F-12-12-12-12-12-12-10-9-7-7-7-7-9-9-9-9-10-

G-------------------------------------------

C-10-10-10-10-10-10--8-7-5-5-5-5-7-7-7-7--8-

Ending

F-5-------

C-3----h6-

G-3----h6-

And what shall I do

I try to speak and words stop short of my tongue

They make their way back to my thoughts

Still crafted by a still soul

I move my eyes around trying to find a place to rest

I can't see it but I feel the light

Someone tell us we are loved

Someone take the pain away

Someone fill up the void

Someone fix my broken heart

Are you that someone?

-=Liberat Te Ex Inferis=-

Get this song at:  amazon.com sheetmusicplus.com

Share your thoughts

0 Comments found