Zao

Zao - Angel Without Wings guitar tab

Ok guys this tab is in dropped D, this is one of the softer sounds of Zao.

Intro

e|---------------------------------------------------------------------|

B|---------------------------------------------------------------------|

G|---------------------------------------------------------------------|

D|-11-11--11-11--7-----------------------------------------------------|

A|-9--9---9--9---5-----------------------------------------------------|

D|--------9--9---------------------------------------------------------|

Verse

e|---------------------------------------------------------------------|

B|---------------------------------------------------------------------|

G|---------------------------------------------------------------------|

D|-2--5-12-11--2--5--12-11-2--5-12-11--2-5--12-11----------------------|

A|-2--5-12-11--2--5--12-11-2--5-12-11--2-5--12-11----------------------|

D|-2--5-12-11--2--5--12-11-2--5-12-11--2-5--12-11----------------------|

Chorus "you're my angel"

e|-----------5----------2--------------5-----------2-------------------|

B|-----3--------------0----0-----3-------11-----0----0-----------------|

G|--4----4-----11--4-----------4----4--------4-------------------------|

D|---------------------------------------------------------------------|

A|---------------------------------------------------------------------|

D|---------------------------------------------------------------------|

Post Chorus "you're always always there for me"

e|---------------------------------------------------------------------|

B|---------------------------------------------------------------------|

G|---------------------------------------------------------------------|

D|-12-9-7--5-9---------------------------------------------------------|

A|-12-9-7--5-9--4-5-7-5-4-5-7-5-4-5-7-5-4-5-7-5------------------------|

D|-12-9-7--5-9---------------------------------------------------------|

Bridge

e|---------------------------------------------------------------------|

B|---------------------------------------------------------------------|

G|-11------------------------------------------------------------------|

D|-11-8---alot---------------------------------------------------------|

A|-9--8----------------------------------------------------------------|

D|----8----------------------------------------------------------------|

Get this song at:  amazon.com

Share your thoughts

0 Comments found