Zao

Zao - A Fall Farewell guitar tab

Song: A Fall Farewell

Artist: Zao

Album: Where Blood and Fire Bring Rest

Tuning: Drop C

~ - let ring out

- - palm mute

b - bended slightly

There are other tabs to this song, but they're either wrong, based on live performace instead of the record, badly

done, or have a miss spelling in the name. I'm sure that this is almost 100% correct, there might be a few parts

that are slightly off, but if there are (which I don't think there are any) you can probably figure it out without

a correct tab.

I did not base this on the other tabs, I did this all by myself.

INTRO:

Both guitars:

|--------------------------------------------------------------|

|--------------------------------------------------------------|

|--------8-8-8-7-7-7-8-8--------8-8-8-8-8-10-10-10-10-10-10----| (Those are 10s)

|-0------x-x-x-x-x-x-x-x-0------x-x-x-x-x-x--x--x--x--x--x-----| (Repeat until about 00:29)

|-0-(x8)-6-6-6-5-5-5-6-6-0-(x8)-6-6-6-8-8-8--8--8--8--8--8-----|

|-0----------------------0-------------------------------------|

PRE-VERSE:

1st guitar:

|-----------|

|-----------|

|-8-8-8-5---| (x4, ends at 00:35 or so)

|-x-x-x-x---|

|-6-6-6-7---|

|-----------|

2nd guitar comes in after that repeats twice with this:

|-----------------|

|-----------------|

|-15-15-15-14-----| (x2, ends at 00:35 as well)

|-x--x--x--x------|

|-13-13-13-12-----|

|-----------------|

The 2nd guitar plays tihsl ittle bit just before it gets to the next part:

|------------|

|------------|

|------------| (ends 00:37)

|-14-15------|

|-x--x--(x8)-|

|-12-17------|

VERSE:

Both guitars:

|-------------|

|-------------|

|---------7---| (x3)

|-0-0-0-0-x---|

|-0-0-0-0-5---|

|-0-0-0-0-----|

|---------------------|

|---------------------|

|---------7---17------|

|-0-0-0-0-x-0-x-(x8)--|

|-0-0-0-0-5-0-15------|

|-0-0-0-0---0---------|

Both guitars:

|--------------|

|--------------|

|---------12b--| (x3)

|-0-0-0-0-x----|

|-0-0-0-0-14b--|

|-0-0-0-0------|

|-----------------------|

|-----------------------|

|---------12b---17------|

|-0-0-0-0-x---0-x-(x8)--|

|-0-0-0-0-14b-0-15------|

|-0-0-0-0-----0---------|

Repeat whole verse, but on the last chord, the second guitar plays (x13x15xx) instead of (x15x17xx)

BREAKDOWN:

|-------------------|

|-------------------|

|---------13-13-13--| (repeat x4)

|-0-1-3-1-x--x--x---|

|-0-1-3-1-11-11-11--|

|-0-1-3-1-----------|

|--------------|

|--------------|

|--------------|

|-0-1-3-1-0~---|

|-0-1-3-1-0~---|

|-0-1-3-1-0~---|

POST-BREAKDOWN:

1st guitar:

|-------------------------|

|-------------------------|

|-------------------------|

|-------------------------|

|-------------------------|

|-0--0-0-3b-5-0-0-0-0-3-5-| (repeat until 1:40)

2nd guitar comes in with a bit of feedback, then both guitars play this:

|-------------------------|

|-------------------------|

|-------------------------|

|-0--0-0-3b-5-0-0-0-0-3-5-| (Repeat until about 2:05, then...)

|-0--0-0-3b-5-0-0-0-0-3-5-|

|-0--0-0-3b-5-0-0-0-0-3-5-|

|-----|

|-----|

|-----|

|-0~--|

|-0~--|

|-0~--|

Do a little scrape/slide on one of the strings, then play the intro, but when repeating it the second guitar plays this:

|--------------------------------------------------------------------------|

|--------------------------------------------------------------------------|

|--------12-12-12-11-11-11-12-12--------12-12-12-12-12-14-14-14-14-14-14---|

|-0------x--x--x--x--x--x--x--x--0------x--x--x--x--x--x--x--x--x--x--x----|

|-0-(x8)-10-10-10-9--9--9--10-10-0-(x8)-10-10-10-10-10-12-12-12-12-12-12---|

|-0------------------------------0-----------------------------------------|

After that, both guitars play:

|----------------|

|----------------|

|-16-16--18-18---|

|-x--x---x--x----| (repeat 2:34)

|-14-14--16-16---|

|----------------|

and end on:

|------|

|------|

|------|

|-0-0~-|

|-0-0~-|

|-0-0~-|

Get this song at:  amazon.com

Share your thoughts

0 Comments found