Zao

In Loving Kindness Tabs



More from Zao

Zao Tabs
Zao Chords
Zao Bass
Zao Lyrics



Song: In Loving Kindness
Band: ZAO
Album: The Splinter Shards the Birth of Separation
Tuning:Drop D(DADGBe)
i couldnt find this tab anywhere else so i decided to figure it out and share it with everyone.
rate it please

Bass Intro

G|---------------|
D|---------------|
A|---------------|
D|-2~-2-5-8~-5-4-|

Both Guitars
e|------------------------------------|
B|------------------------------------|
G|------------------------------------|
D|-2-2-2-2-2-2-2-2-2-2-2-2-2-2-2-2-5^-|
A|-2-2-2-2-2-2-2-2-2-2-2-2-2-2-2-2----|
D|-2-2-2-2-2-2-2-2-2-2-2-2-2-2-2-2----|
. . . . . . . . . . . . . . . .

Both Guitars
e|-----------------------------------------|
B|-----------------------------------------|
G|-----------------------------------------|
D|-2-2-2-2-2-2-2-2-2-2-2-2----9-7-9-10-9-7-|
A|-2-2-2-2-2-2-2-2-2-2-2-2----7-5-7--8-7-5-|
D|-2-2-2-2-2-2-2-2-2-2-2-2-----------------|
. . . . . . . . . . . .

Both Guitars
e|----------------------------|
B|----------------------------|
G|----------------------------|
D|-9-10-9-7-9-10-9-7-9-10-9-7-|
A|-7--8-7-5-7--8-7-5-7--8-7-5-|
D|----------------------------|

Both Guitars
e|----|
B|----|
G|----|
D|-9~-|
A|-7~-|
D|----|

Both Guitars
e|----------------------------------|
B|----------------------------------|
G|----------------------------------|
D|-2---2---2---2---2---2---2---2222-|
A|-2---2---2---2---2---2---2---2222-|
D|-2---2---2---2---2---2---2---2222-|
. . . . . . . ....

Both Guitars
e|---|-----|----------------|
B|---|-----|----------------|
G|---|-----|----------------|
D|-2-|-x29-|----------------|
A|-2-|-----|-*drum fill*----|
D|-2-|-----|----------------|
.

Guitar 1
e|---------------------------------| last 4 chords palm
B|---------------------------------| muted only first 2 times
G|---------------------------------|
D|-2-2-2-2-2-2-2-2-2-2-2-2-2-3-2-0-|
A|-2-2-2-2-2-2-2-2-2-2-2-2-2-3-2-0-| on the second time the
D|-2-2-2-2-2-2-2-2-2-2-2-2-2-3-2-0-| last 4 chords is just bass
. . . . . . . . . . . .

Guitar 2
e|----------------------------------|
B|----------------------------------|
G|----------------------------------|
D|-2-2-2-2-2-2-2-2-2-2-2-2-9-10-9-7-|
A|-2-2-2-2-2-2-2-2-2-2-2-2-7--8-7-5-|
D|-2-2-2-2-2-2-2-2-2-2-2-2----------|
. . . . . . . . . . . .

Guitar 1
e|---------------------------------|
B|---------------------------------|
G|---------------------------------|
D|-2-2-2-2-2-2-2-2-2-2-2-2-2-2-2-2-|
A|-2-2-2-2-2-2-2-2-2-2-2-2-2-2-2-2-|
D|-2-2-2-2-2-2-2-2-2-2-2-2-2-2-2-2-|
. . . . . . . . . . . . . . . .

Guitar 2
e|-----------|----|-----------------------------------|
B|-----------|----|-----------------------------------|
G|-----------|----|-----------10---10p9---------------|
D|-99-9h10p9-|-x4-|-99-9h10p9----9------10p9-7-10p9p7-|
A|-77--------|----|-77--------------------------------|
D|-----------|----|-----------------------------------|
.. ..

Guitar 1
e|---------------------------------|
B|---------------------------------|
G|---------------------------------|
D|-2-2-2-2-2-2-2-2-2-2-2-2-2-2-2-2-|
A|-2-2-2-2-2-2-2-2-2-2-2-2-2-2-2-2-|
D|-2-2-2-2-2-2-2-2-2-2-2-2-2-2-2-2-|
. . . . . . . . . . . . . . . .

Guitar 2
e|--------------------------|-----|-------------------------|-----|
B|--------------------------|-1st-|-------------------------|-----|
G|-----------------------10-|-and-|-------------------------|-2nd-|
D|-----9-10---9-10---9-7----|-3rd-|-----9-10---9-10---9-7-9-|time-|
A|--------------------------|times|-------------------------|-----|
D|--------------------------|-----|-------------------------|-----|

e|----------------------------|-----|
B|----------------------------|-----|
G|------------10p9------------|-4th-|
D|-----9-10--------10p9---9p7-|time-|
A|----------------------------|-----|
D|----------------------------|-----|

Guitar 1
e|---|
B|---|
G|---|
D|-2-| keep doing this
A|-2-|
D|-2-|

Guitar 2
e|----------|
B|----------|
G|-7b8r7b8~-|
D|----------|
A|----------|
D|----------|

Guitar 2
e|-----------------|
B|-----------------|
G|-----------------|
D|-9-10---9-10-9-7-| strumming
A|-7--8---7--8-7-5-|
D|-----------------|

Both Guitars
e|---------|
B|---------|
G|---------|
D|-2---2-2-|
A|-2---2-2-|
D|-2---2-2-|
. . .

Guitar 1
e|------|
B|------|
G|------|
D|-2~~~-|
A|-2~~~-|
D|-2~~~-|

Guitar 2
e|--------------------------------------------------------|
B|--------------------------------------------------------|
G|--------------------------------------------------------|
D|-9~~~-9h10-10p9~~~-12-10-9h10p9~~~-9h10-10p9~~~-7-9-7-5-|
A|--------------------------------------------------------|
D|--------------------------------------------------------|

Guitar 2
e|--------------------------------------|
B|--------------------------------------|
G|--------------------------------------|
D|-2~-4-4-5-2~-4~-5-2~-4~-5-2~-4-5-7-10-|
A|--------------------------------------|
D|--------------------------------------|

Both Guitars
e|--------------------------|-----|------------------------------|-----|
B|--------------------------|-----|------------------------------|-----|
G|--------------------------|-1st-|------------------------------|-2nd-|
D|-9~~~-9h10p9~~~-7-12-10-9-|time-|-9h10p9~~~-9h10p9~~~---7s9s10-|time-|
A|--------------------------|-only|------------------------------|-only|
D|--------------------------|-----|------------------------------|-----|

e|--------------------------------------------------------|
B|--------------------------------------------------------|
G|--------------------------------------------------------|
D|-9h10p9~~~-9h10p9~~~-7-12-10-9-9h10p9~~~-9h10p9-7-2-4-5-|
A|--------------------------------------------------------|
D|--------------------------------------------------------|

Both Guitars
e|-------------|-----|-------------|
B|-------------|-----|-------------|
G|-4-----------|-1st-|-4-5-4-5-7-5-|
D|---2-4-5-4-5-|seven|-------------|
A|-------------|times|-------------|
D|-------------|-----|-------------|

Guitar 1
e|------|
B|------|
G|------|
D|-9~~~-|
A|------|
D|------|

Guitar 2
e|--------------------|
B|--------------------|
G|--------------------|
D|-9~-10~-9~-10~-10-7-|
A|--------------------|
D|--------------------|

Guitar 1
e|-----------------|
B|-----------------|
G|-----------------|
D|-2~--2~--2~--2~--|
A|-2~--2~--2~--2~--|
D|-2~--2~--2~--2~--|

Guitar 2
e|------------------|
B|------------------|
G|------------------|
D|-9~--9~--11-12-14-|
A|-7~--7~---9-10-12-|
D|------------------|

End on
e|------|
B|------|
G|------|
D|-9~~~-|
A|-7~~~-|
D|------|

email me with any news, it took me a while and it sounds right.
even email me if you jst want to put some corrections in


Get this song at amazon.com      Ebay     Ringtones Ringtones  


Learn to play: Songwriting, Piano, Harmonica, Guitar
Also available at Muzikum: Zao - In Loving Kindness lyrics

Related Zao Tabs

Free The Three tabs
Fifteen Rhema tabs
A Farewell Ver tabs
The Ghost Psalm tabs
Angel Without Wings tabs
Parade Of Chaos Album tabs
Trash Can Hands tabs
Witchhunter tabs
If These Scars Could Speak tabs
Rising End tabs
A Farewell tabs
To Think Of You Is To Treasure tabs
The Dreams That Don Come True tabs
5 Year Winter tabs
My Love My Love Weve Come Back From The Dead tabs
Trashcanhands tabs
Alive Is Dead tabs
Repressed tabs
End Of His World tabs
Latter Rain tabs


Guitar Tabs









All tabs are property and copyright of their owners. All tabs provided for educational purposes only. Privacy Policy, DMCA