Zao

I Lay Sleepless In My Grave Tabs



More from Zao

Zao Tabs
Zao Chords
Zao Bass
Zao Lyrics



Artist: Zao
Title: I Lay Sleepless In My Grave
Album: Funeral of God
Tuning: Drop C

Guitar 1

D------------------------------------
A------------------------------------
F------------------------------------
C---8--8-----8--8-----3--3-----3--3--
G--5-5--5---6-6--6---7-7--7---7-7--7-
C-5---5--5-5---5--0-3---3--0-0---0--0 repeat throughout song.

Guitar 2
(start after guitar 1 plays it's riff the fourth time)

D---------------------------------------------
A---------------------------------------------
F---------------------------------------------
C-12--12--12--10--10--10----------------------
G-----------------------13--13--13--12--12--12
C---------------------------------------------
continue to repeat until end of song


Get this song at amazon.com      Ebay     Ringtones Ringtones  


Learn to play: Songwriting, Piano, Harmonica, Guitar
More Zao lyrics available at Muzikum

Related Zao Tabs

The Buzzing tabs
Alive Is Dead tabs
The Dreams That Dont Come True tabs
A Fall Farewell tabs
Ghost Psalm tabs
Everything You Love Will Soon Fly Away tabs
The Rising End tabs
Man In Cage tabs
Intro tabs
Parade Of Chaos Album tabs
A Farewell tabs
Growing In Grace|solo tabs
Paracde of chaos tabs
In Loving Kindness tabs
Angel Without Wings tabs
Savannah tabs
Trashcanhands tabs
Dark Cold Sound tabs
Rising End The First Prophecy tabs
The Race Of Standing Still tabs


Guitar Tabs









All tabs are property and copyright of their owners. All tabs provided for educational purposes only. Privacy Policy, DMCA