Zao

Fjl Tabs



More from Zao

Zao Tabs
Zao Chords
Zao Bass
Zao Lyrics



well i am writing some crap cause it won't let me submit a tab unless it is long or something.....lol....well
this song just repeats this over and over...so i am gonna put the same thing over and over
a few times so i can submit it.....

Dropped C Tuning: Acoustic

Main: Each part 2x
E-------3-----------3----|----------------------
B------------------------|----------------------
G-0-----------0----------|-0-----1----0-----1---
D----1-----1-----1-----1-|----1----1-----1----1-
A------------------------|----------------------
E------------------------|----------------------

Each part 2x
E-------3-----------3----|----------------------
B------------------------|----------------------
G-0-----------0----------|-0-----1----0-----1---
D----1-----1-----1-----1-|----1----1-----1----1-
A------------------------|----------------------
E------------------------|----------------------


Get this song at amazon.com      Ebay     Ringtones Ringtones  


Learn to play: Songwriting, Piano, Harmonica, Guitar
Also available at Muzikum: Zao - Fjl lyrics

Related Zao Tabs

In Loving Kindness tabs
Repressed tabs
Rising End The First Prophecy tabs
Rising End tabs
Tool To Scream tabs
Latter Rain tabs
Exchange tabs
Ghost Psalm tabs
Kathleen Barbra tabs
Praise The War Machine tabs
Desire The End tabs
Ravage Ritual tabs
Trash Can Hands tabs
End Of His World tabs
The Buzzing tabs
Autopsy tabs
The Rising End (the First Prophecy) tabs
Race Of Standing Still tabs
Violet tabs
Dreams That Dont Come True tabs


Guitar Tabs









All tabs are property and copyright of their owners. All tabs provided for educational purposes only. Privacy Policy, DMCA