Zao

All Else Failed Tabs



More from Zao

Zao Tabs
Zao Chords
Zao Bass
Zao Lyrics



Written By: Zao
Album: All else Failed
Tabbed By: firehousesk8er@hotmail.com
tunning: Drop the lower string a whole step, and thats it.

intro
(0:00)
E-----------------------------
B-----------------------------
G----8---/9---6--/9-6-------
D-----------------------------
A----6---/7---4--/7-4-------
C-----------------------------

(01:26)
E------------------------------------------------
B------------------------------------------------
G------------------------------------------------
D------------------------------------------------
A---6-6-7-7-6-6---6-6-9-9-7-7---6-6-7-7-6-6-5----
C------------------------------------------------

(01:41)
E------------------------------------------------------------------
B------------------------------------------------------------------
G---*-*-8-8/9-98-8---*-*-8-8/11-119-9---*-*-8-8/9-98-8--*-*-7---
D------------------------------------------------------------------ twice
A---*-*-6-6/7-76-6---*-*-6-6/9--9-7-7---*-*-6-6/7-76-6--*-*-5---
C------------------------------------------------------------------

then
E---------
B---------
G---------
D---------
A---/13---
C---------

(02:10)
E--------------------------------------
B--------------------------------------
G---*8-*8-*8-*8-*8-*8-*8-*8--------8---
D---*8-*8-*8-*8-*8-*8-*8-*8-----8------ three times
A---*6-*6-*6-*6-*6-*6-*6-*6--6---------
C--------------------------------------

a)(02:25)
E------------------------------------------------------------
B------------------------------------------------------------
G--*8-*8-*8-*8-*8-*8-*8-*8--9--*8-*8-*8-*8-*8-*8-*8-*8--11---
D--*8-*8-*8-*8-*8-*8-*8-*8-----*8-*8-*8-*8-*8-*8-*8-*8-------
A--*6-*6-*6-*6-*6-*6-*6-*6--7--*6-*6-*6-*6-*6-*6-*6-*6---9---
C------------------------------------------------------------
continues here
b)
E-----------------------------------------------------------
B-----------------------------------------------------------
G--*8-*8-*8-*8-*8-*8-*8-*8--9--*8-*8-*8-*8-*8-*8-*8-*8--7---
D--*8-*8-*8-*8-*8-*8-*8-*8-----*8-*8-*8-*8-*8-*8-*8-*8------
A--*6-*6-*6-*6-*6-*6-*6-*6--7--*6-*6-*6-*6-*6-*6-*6-*6--5---
C-----------------------------------------------------------
a) and b) are one. play this 4 times.

then, play same as the intro a few times.

then
(03:24)
E-------------- --------------------------------
B-------------- play this --------------------------------
G---8---6-/9-- 8 times, -----------11-------9--------8--
D---8---4-/9-- I guess, ------11----------9-------8-----
A---6---4-/7-- then ---9-----------7-------6--------
C-------------- --------------------------------

(03:53)
E----------------------------------
B----------------------------------
G---8---6-/9----8---/11---9---8---
D---8---4-/9----8---/11---9---8--- eight times
A---6---4-/7----6---/9----7---6---
C----------------------------------

(04:48)
E-------------------------------------------
B-------------------------------------------
G-------------------------8-8/9-9-9-9-9-----
D---0-0-0----------0-0-0--------------------
A---0-0-0----------0-0-0--6-6/7-7-7-7-7-----
C---0-0-0----------0-0-0--------------------

E-------------------------------------------
B-------------------------------------------
G-------------------------------------------
D---0-0-0--0-0-0-9-8---0-0-0--0-0-0-3-2-----eight times
A---0-0-0--0-0-0-9-8---0-0-0--0-0-0-3-2-----
C---0-0-0--0-0-0-9-8---0-0-0--0-0-0-3-2-----

finish with intro.

--------------------------------------------------------------------------------

secret
(09:18)
E--------------- ----------------------------
B--------------- ----------------------------
G---8-8------3-- ---8-8---8---------3--------
D---8-8------4-- ---8-8------8------4--------
A---6-6------2-- ---6-6---------6---2--------
C--------------- ----------------------------

chorus.follow the rythm (09:42)
E-------------------
B-------------------
G---8-----6-----4---
D---8-----6-----4---
A---6-----4-----2---
C-------------------

(09:58)
E--------------- ----------------------------
B--------------- ----------------------------
G---8-8------3-- ---8-8---8---------3--3h4p3-
D---8-8------4-- ---8-8------8------4--------
A---6-6------2-- ---6-6---------6---2--------
C--------------- ----------------------------

(10:28)
E---------------------------------------
B---------------------------------------
G---8--/118---6/106---4---3-3-3-4-3---
D---8--/118---6/106---4---------------
A---6--/9 6---4/8 4---2---------------
C---------------------------------------

solo?(10:43)
E-------------------------------------------------------------------
B-------------------------------------------------------------------
G---11---10---8--6/8---6/11-11/13--11---/13-/15-15/1615--------
D-------------------------------------------------------------------
A---9----8----6--4/6---4/9--9-/11---9---/11-/13-13/1413--------
C-------------------------------------------------------------------

E-------------------------------------------
B-------------------------------------------
G---11-/16-16--1513--11-------------------
D-------------------------------------------
A---9--/14-14--1311---9-------------------
C-------------------------------------------

E-------------------------------------------------------
B-------------------------------------------------------
G---11---10---8--6/11-11/13--11---/13-/15-15/1615---
D-------------------------------------------------------
A---9----8----6--4/9--9-/11---9---/11-/13-13/1413---
C-------------------------------------------------------

E-------------------------------------------
B-------------------------------------------
G---7---/11-11-108--8---------------------
D-------------------------------------------
A---5---/9---9--86--6---------------------
C-------------------------------------------

then repeat the chorus and the solo untill the end.


Get this song at amazon.com      Ebay     Ringtones Ringtones  


Learn to play: Songwriting, Piano, Harmonica, Guitar
Also available at Muzikum: Zao - All Else Failed lyrics

Related Zao Tabs

Violet tabs
Five Year Winter tabs
A Fall Farewell tabs
My Love My Love Weve Come Back From The Dead tabs
Fifteen Rhema tabs
Witch Hunter tabs
5 Year Winter tabs
Tool To Scream tabs
A Farewell Ver tabs
Lies Of Serpents River Of Tears tabs
To Think Of You Is To Treasure tabs
A Farewell tabs
The Dreams That Don Come True tabs
Fjl tabs
Skin Like Winter tabs
Rising End Bass tabs
Ember tabs
Dark Cold Sound tabs
I Lay Sleepless In My Grave tabs
All Else Failed tabs


Guitar Tabs









All tabs are property and copyright of their owners. All tabs provided for educational purposes only. Privacy Policy, DMCA