Yo La Tengo

Yo La Tengo - Pablo & Andrea guitar tab

#

From MrAmeche01@aol.com Sun May 4 10:43:13 1997

[The following text is in the "unknown-8bit" character set]

[Your display is set for the "US-ASCII" character set]

[Some characters may be displayed incorrectly]

"Pablo and Andrea"

YO LA TENGO from the album ELECTR-O-PURA

Submitted by Mr. Ameche (MrAmeche01@aol.com)

***Capo 3rd Fret***

Main:

e|-----------------------3----------------|

B|-------------------------6-------6-4----|

G|-3-3-3---3---3-3---3-------3---------3--|

D|-3-5-8---8---6-5---3--------------------|

A|-----------6-----6----------------------|

E|----------------------------------------|

Verse:

e|-------------------3-----

B|---------------------6---

G|-------3---------3-----3-

D|-------------------------

A|---8-6---5-6-3-----------

E|-8-------------6---------

"Down the street^Š":

e|---------------------------------6----|

B|---------------------------------6----|

G|-3---3---3---3---3---3---3---3---3----|

D|--------------------------------------|

A|-6-8-8-8-8-6-6-6-6-8-8-8-8-6-6-6------|

E|-6-6-6-6-6-6-6-6-6-6-6-6-6-6-6-6------|

Slide-like solo:

e|--------------------------------|

B|---6-/-11---------------11-/-6--|

G|-8----------10-10-10-12---------|

D|--------------------------------|

A|--------------------------------|

E|--------------------------------|

Play this behind slide-like solo:

e|---------------------------|

B|---------------------------|

G|---------------------------| ^Šor something like this.

D|-3----3----3----3----3-----|

A|-12---12---12---10---10----|

E|---------------------------|

"In a crowded room^Š":

e|---------------------------------|

B|---------------------------------|

G|---------------------------------|

D|-8-8-8-8-8-8-8-8-3-3-3-3-3-3-3-3-|

A|-6-6-6-6-6-6-6-6-3-3-3-3-3-3-3-3-|

E|---------------------------------|

Close with fuzzed-out feedback solo, then mellow.

Any questions? Death threats? Email MrAmeche01@aol.com

Get this song at:  amazon.com sheetmusicplus.com

Share your thoughts

0 Comments found