YFE

YFE - Us guitar tab

Artist: Yfe

Song: Us

Y.F.E

US

by rob.d

intro

E----------------------------------------------

B----------------------------------------------

G------------------5--5--5--5------------------

D---2--2--2--2-----5--5--5--5-----5--5--5--5--- x4

A---2--2--2--2-----3--3--3--3-----5--5--5--5---

E---0--0--0--0--------------------3--3--3--3---

........p.m....................................

E----------------------------------------------

B----------------------------------------------

G------------------5--5--5--5------------------

D---2--2--2--2-----5--5--5--5-----5--5--5--5--- x4

A---2--2--2--2-----3--3--3--3-----5--5--5--5---

E---0--0--0--0--------------------3--3--3--3---

verse

E----------------------------------------------

B----------------------------------------------

G------------------5--5--5--5------------------

D---2--2--2--2-----5--5--5--5-----5--5--5--5--- x4

A---2--2--2--2-----3--3--3--3-----5--5--5--5---

E---0--0--0--0--------------------3--3--3--3---

........p.m....................................

chorus

La La La La La La La

E----------------------------------------------

B----------------------------------------------

G-----------5---------------------5------------

D-----2-----5-----5---------2-----5-------5---- x2

A-----2-----3-----5---------2-----3-------5----

E ----0-----------3---------0-------------3----

E----------------------------------------------

B----------------------------------------------

G------------------5--5--5--5------------------

D---2--2--2--2-----5--5--5--5-----5--5--5--5--- x4

A---2--2--2--2-----3--3--3--3-----5--5--5--5---

E---0--0--0--0--------------------3--3--3--3---

verse

E----------------------------------------------

B----------------------------------------------

G------------------5--5--5--5------------------

D---2--2--2--2-----5--5--5--5-----5--5--5--5--- x4

A---2--2--2--2-----3--3--3--3-----5--5--5--5---

E---0--0--0--0--------------------3--3--3--3---

........p.m....................................

chorus

La La La La La La La

E----------------------------------------------

B----------------------------------------------

G-----------5----------------------5-----------

D-----2-----5-----5---------2------5------5---- x2

A-----2-----3-----5---------2------3------5----

E ----0-----------3---------0-------------3----

E----------------------------------------------

B----------------------------------------------

G------------------5--5--5--5------------------

D---2--2--2--2-----5--5--5--5-----5--5--5--5--- x4

A---2--2--2--2-----3--3--3--3-----5--5--5--5---

E---0--0--0--0--------------------3--3--3--3---

verse

E----------------------------------------------

B----------------------------------------------

G------------------5--5--5--5------------------

D---2--2--2--2-----5--5--5--5-----5--5--5--5--- x4

A---2--2--2--2-----3--3--3--3-----5--5--5--5---

E---0--0--0--0--------------------3--3--3--3---

........p.m.....................................

chorus

La La La La La La La

E-----------------------------------------------

B----------------------------------------------

G-----------5----------------------5-----------

D-----2-----5-----5---------2------5------5---- x2

A-----2-----3-----5---------2------3------5----

E ----0-----------3---------0-------------3----

E-----------------

B-----------------

G-----------------

D---5-------------

A---5---let ring during bass

E---3-------------

Bass

G-----------------------------------

D-----------------------------------

A--------------3-3-3-3-------------- x4

E---0-0-0-0--------------3-3-3-3----

E--------------------------------------------------------------------

B--------------------------------------------------------------------

G---5--5--5--5------------------------------5--5--5--5---------------

D---5--5--5--5----5--5--5--5---2--2--2--2---5--5--5--5---5--5--5--5--

A---3--3--3--3----5--5--5--5---2--2--2--2---3--3--3--3---5--5--5--5--

E-----------------3--3--3--3---0--0--0--0----------------3--3--3--3--

...........p.m........................................................

E-------------------------------------------------------------------------------

B-------------------------------------------------------------------------------

G----------------5--5--5--5-----------------------------5--5--5--5--------------

D---2--2--2--2---5--5--5--5---5--5--5--5---2--2--2--2---5--5--5--5---5--5--5--5-

A---2--2--2--2---3--3--3--3---5--5--5--5---2--2--2--2---3--3--3--3---5--5--5--5-

E---0--0--0--0----------------3--3--3--3---0--0--0--0----------------3--3--3--3-

...........p.m...................................................................

chorus

La La La La La La La

E-----------------------------------------------

B-------------------------------------------------

G-----------5----------------------5------------

D-----2-----5-----5---------2------5------5---- x4

A-----2-----3-----5---------2------3------5----

E ----0-----------3---------0-------------3----

CHINA MOMMA!!!!!!!!!

WHATS THE DEAL!!!!!!!!!

yourfatalend.com

Get this song at:  amazon.com sheetmusicplus.com

Share your thoughts

0 Comments found