Xes

If Only I Cared Bass Tabs



More from Xes

Xes Tabs



If Only I Cared - Carpe Diem

BASS



INTRO - 8 bars of guitar, then bass comes in

G|-------|-------|-------|-------|

D|-------|-------|-------|-------|

A|-3--5--|-------|-3--5--|-5--7--|

E|-------|-3--5--|-------|-------|



G|-------|-------|-------|-------|

D|-------|-------|-------|-------|

A|-3--5--|-------|-------|-------|

E|-------|-3--5--|-1--3--|-1--3--|



VERSE

G|-----------------|-----------------|-----------------|----------------|

D|-----------------|-5-5-5-5-5-5-5-5-|-3-3-3-3-3-3-3-3-|-3-2--------2-3-|x3

A|-3-3-3-3-3-3-3-3-|-----------------|-----------------|-----5-3--5-----|

E|-----------------|-----------------|-----------------|----------------|



on 4th, hold this note

G|-----------------|-----------------|-----------------|----------------|

D|-----------------|-5-5-5-5-5-5-5-5-|-3---------------|-3-2--------2-3-|x3

A|-3-3-3-3-3-3-3-3-|-----------------|-----------------|-----5-3--5-----|

E|-----------------|-----------------|-----------------|----------------|



PRE-CHORUS - verse riff x1

G|-----------------|-----------------|-----------------|----------------|

D|-----------------|-5-5-5-5-5-5-5-5-|-3-3-3-3-3-3-3-3-|-3-2--------2-3-|

A|-3-3-3-3-3-3-3-3-|-----------------|-----------------|-----5-3--5-----|

E|-----------------|-----------------|-----------------|----------------|





G|-----------------|-----------------|-----------------|-----------------|

D|-----------------|-5-5-5-5-5-5-5-5-|-3---------------|-3-3-3-3-3-3-3-3-|

A|-3-3-3-3-3-3-3-3-|-----------------|-----------------|-----------------|

E|-----------------|-----------------|-----------------|-----------------|



CHORUS

G|-----------------|-----------------|-----------------|-----------------|

D|-----------------|-----------------|-----------------|-----------------|x2

A|-3-3-3-3---------|-3-3-3-3-5-5-5-5-|-3-3-3-3---------|-----------------|

E|---------3-3-3-3-|-----------------|---------3-3-3-3-|-1-1-1-1-1-1-1-1-|



INTRO x1

VERSEx1

PRE-VERSE x1

CHORUS x2



bass stops



Added by tabs-database.com and our distinguished partners
Get this song at amazon.com      Ebay     Ringtones Ringtones  


Learn to play: Songwriting, Piano, Harmonica, Guitar

Related Xes Tabs

Im Not Listening tabs
If Only I Cared Bass tabs


Guitar Tabs









All tabs are property and copyright of their owners. All tabs provided for educational purposes only. Privacy Policy, DMCA

Online converter - videoconverter.com