Xavier Rudd

Xavier Rudd - My Missing guitar tab

----------------------------------------------------------------------------

My Missing - Xavier Rudd

----------------------------------------------------------------------------Tabbed by:

Siermacheski

Email: webmaster at tabs-database.com.com

Tuning: Standard

I think this tab is fairly accurate, its just the same 5 chords tabbed throughout the

song. Long live Xavier Rudd.

Cadd9 Em7 G

e|-----------------------------3------|

B|--3--------3--------3---------3-----|

G|------0--------0--------0------0----|

D|-------2--------0--------0------0---|

A|--3--------2------------------------|

E|--------------------3--------3------|

Cmaj7 Em7 D

e|--------------------2--------2h3----|

B|--0--------3------------3-------3---|

G|------0--------0---------2-------2--|

D|-------2--------0---0--------0------|

A|--3--------2------------------------|

E|------------------------------------|

Cadd9 Em7 G

I see you sleeping

Cmaj7 Em7 D

Only in my mind

Cadd9

And I have been away

Em7 G

And on this season

Cmaj7 Em7 D

I waste so much time

Cadd9

Thinking of when I

Em7 G

Would hold you gently

Cmaj7 Em7 D

And I'd look into your eyes

Cadd9

And I would be the one

Em7 G

To calm your shaking

Cmaj7 Em7 D

When you would cry

Cadd9 Em7 G Cmaj7 Em7 D

I miss you in my life

Cadd9 Em7 G Cmaj7 Em7 D

I miss you in my life

Cadd9 Em7 G Cmaj7 Em7 D

I miss you in my life

Cadd9 Em7 G Cmaj7 Em7 D

So miss you in my life

You had your answers

Within every smile

And time and time again

I'd lose my chances

To reconcile

And even if I had my time over

It would take awhile

To reveal all my best intentions

That I let slip by

I miss you in my life

So miss you in my life

I miss you in my life

Now I miss you in my life

| h hammer-on

Enjoy!

============================================================================Added by tabs-database.com and our distinguished partners

Get this song at:  amazon.com sheetmusicplus.com

Share your thoughts

0 Comments found