Willie Nelson

Willie Nelson - Whiskey River solo guitar tab

Willie Nelson

Whiskey River Solo

Written By: Willie Nelson

Submitted By: RoC

C G

-----------------------------------------------------------

-----------------------------------------------------------

-----------------------------------------------------------

10--10-10-10-10-10----10--10--10-10-10---10/---5-5-5-------

-----------------------------------------------------------

-8---8-8--8--8--8------8---8---8--8--8----8/3--3-3-3-------

-----------------------------------------------------------

-----------------------------------------------------------

-----------3-5--5b(1/2)R(5)--5p3p0-------------------------

5p3p0--3-5-------------------------5-3-5-5p3p0-3-5-5-5-----

-----------------------------------------------------------

-----------------------------------------------------------

D

------------------------------------------------------3----

----3---3--3b(1/2)--5-3------3----3-3b(1/2)--5-3-3-5-------

-----------------------------------------------------------

-----------------------------------------------------------

2/4---X-----------------2/4----X---------------------------

-----------------------------------------------------------

G

-----3------3-------3--------------------------------------

-3-5---3-5-----3-5----3--5b(1/4)--------------------------

-----------------------------------------------------------

-----------------------------------------------------------

-----------------------------------------------------------

-----------------------------------------------------------

C

3-3--4-4--5-5--6-6--7-7--8-8/3--3--------------------------

----------------------------------6-3----------------------

--------------------------------------6/5--3-5-5-5b(1/2)5R5

------------------------------------------5----------------

-----------------------------------------------------------

-----------------------------------------------------------

-----------------------------------------------------------

-----------------------------------------------------------

5-3--------------3-5p3-------------------------------------

----5p3p0--3-5---------5-3-0---5-5p3p0--5p3p0--5-5------3-5

------------------------------------------------------5----

--------------------------------------------------3-3------

G D

-----------------------------------------------------------

------------------------------------------3--3-----3-----3-

-----------------------------------------------------------

5-5p3p0--5--5p3p0--5------------3-5---3/4------4-4---4-4---

---------------------------(0)-----------------------------

----------------------3--3---------------------------------

G

-----------------------------------------------------------

3-3-----3-3-----3-3----3-3--3-3---3-3---3-3--3-3--3-3--3---

-----------------------------------------------------------

-----4-------4------4------4-----5-----5----5----5----5--5-

-----------------------------------------------------------

-----------------------------------------------------------

C

-----------------------------------------------------------

3--3/4--4/6--5/6--6--6/7--7--7-/8---8----------------------

-----------------------------------------------------------

5--5/6--6/7--7/8--8--8/9--9--9/10--10----------------------

-----------------------------------------------------------

-----------------------------------------------------------

Get this song at:  amazon.com sheetmusicplus.com

Share your thoughts

0 Comments found