Willie Nelson

Willie Nelson - Til I Gain Control Again guitar chord

INTRO:

E|-------|-------------------

B|-------|-------------------

G|-------|-------------------

D|-------|---------0-2-3-4---

A|-------|---0-2-3-----------

E|-3--3--|-3-----------------

()(C) (G7) (C)

Just like the sun over the mountain top,

(F) (C)

you know I'll always come again.

(F) (C)

You know I love to spend my morning time,

(G) (G7) (C)

like sunlight dancing on your skin.

Verse 2:

(C) (G7) (C)

I have never gone so wrong as for telling lies to you.

(F) (C)

What you've seen is what I've been.

(F) (C)

There is nothing that I can hide from you.

(G) (G7) (C)

You see me better than I can.

Chorus:

(F) (C)

Out on the road that lies before me now,

(F) (C) (C7)

there are some turns where I will spin.

(F) (C)

I only hope that you will hold me now,

(G7) (C)

til I can gain control again.

Verse 3:

(C) (G7) (C)

Just like a lighthouse, you must stand alone;

(F) (C)

landmark a sailor's journey's end.

(F) (C)

No matter what sea I've been sailing on,

(G) (G7) (C)

I'll always roll this way again.

Chorus:

(F) (C)

Out on the road that lies before me now,

(F) (C) (C7)

there are some turns where I will spin.

(F) (C)

I only hope that you will hold me now,

(G7) (C)

til I can gain control again.

OUTRO:

E|-------|-------------------

B|-------|-------------------

G|-------|-------------------

D|-------|---------0-2-3-4---

A|-------|---0-2-3-----------

E|-3--3--|-3-----------------End on C

Get this song at:  amazon.com sheetmusicplus.com

Share your thoughts

0 Comments found