Willie Nelson

Willie Nelson - Stardust guitar tab

Willie Nelson - Stardust (tab)

By axehappy - axehappy@

Good luck playing this one!

You're gonna be all over the neck with this, so you've gotta be good at barre chords.

I'll show a couple of different positions for some chords though, cos in parts,

you'll be halfway up the neck, and in other parts, you'll be low down, but need to

play the same chord....learn this song! You NEED to know these chords!

Am = x02210 or 577555 E+ = xx2110

C = x32010 or x35553 F#dim7 = x3454x

G = 320003 or 355433 C6 = x35555 or 875555

Eb(b5) = x6788x or xx1243 Gmaj7 = 354433

Bm7 = x24232 Bbm7 = x13121

Am7 = x02010 or 575555 D6 = x57777

D = xx0232 or x57775 Bb+ = xx8776

G/B = xx9787 A9 = 575657

Eb = x68886 Bm6 = x20103

F9 = x8788x or xx3243 E9 = x7677x or xx2132

Cm = x35543 Ab = 466544

*******************************************************************************************

Am E+ C F#dim7 G C G

INTRO

C6

Sometimes I wonder

Eb(b5)

Why I spend the lonely nights,

Dreaming of a song.

Gmaj7 Bm7 Bbm7

The melody haunts my memory,

Am7 E+ Am

And I am once again with you.

D6 D

When our love was new,

Bb+ G/B Bb+ G/B

And each kiss an inspiration.

A9

But that was long ago

And now my consolation,

D Eb D

Is in star dust of song.

C6

Beside the garden wall

Eb(b5)

When stars are bright,

You are in my arms.

G Bm6

The nightingale tells his fairy tales,

Am E+ Am

Of paradise where roses grew.

Eb(b5) F9

And though I dream in vain,

G E9

In my heart, there always will remain

Am7

My stardust memory,

D G Cm G

The memory of loves refrain.

C6 Eb(b5) F9 G Bm6 Am E+ Am

GUITAR SOLO

Eb(b5) F9

And though I dream in vain,

G E9

In my heart, there always will remain

Am7

My stardust memory,

D G Cm G

The memory of loves refrain.

C6 Eb(b5) F9 G Bm6 Am E+ Am

GUITAR SOLO

Eb(b5) F9

And though I dream in vain,

G E9

In my heart, there always will remain

Am7

My stardust memory,

D G Ab G

The memory of loves refrain.

*******************************************************************************************

h = hammer-on / = slide up

\ = slide down p = pulloff

*******************************************************************************************

INTRO (picking)

Am E+ C F#dim7 G C G

E----0----0----0-----------------0------|

B---1----1----1-----4--------0----1-----|

G--2--2-1--1-0--0--5--------0---0-------|

D-----------------4--4-----0---2--------|

A---------------------------------------|

E-------------------------3---------3---|

INTRO (lead)

Am E+ C F#dim7 G C G

E--5-3-------------------------|

B-----3h5-3/5--3-5-3-----------|

G--------5--------5-4-5--------|

D----------------------4---5---|

A------------------------------|

E------------------------------|

LEAD SOLO (second solo is almost identical too)

C6 Eb(b5) F9 G Bm6

E--2-3-4-5--3---------------7/9-9-------5-3-------3--3--3-3-2-2-2---------

B------------3h5---------3h5---------------4---------------------1/3-3-3--

G----------------5\2-2--5-------------------5\2-2-----------------------4-

D-------------------------------------------------------------------------

A-------------------------------------------------------------------------

E-------------------------------------------------------------------------

Am E+ Am

E-----3----------------|

B--3h5-5-3-------------|

G-------5-4-4h5p4-2----|

D----------------------|

A----------------------|

E----------------------|

Get this song at:  amazon.com sheetmusicplus.com

Share your thoughts

0 Comments found