Willie Nelson

Willie Nelson - Sit On My Lap guitar tab

sit on my lap

willie nelson

TRANSCRIBED BY RUDY GUZMAN

guzman_84@hotmail.com

e:------------------------------0-0-0-0-0-0-0-0-0-0-0-0-0-0-0-0-0-0-0-|

B:-2--2--2-2-2-2-2-2-2-2-2-2-2--0-0-0-0-0-0-0-0-0-0-0-0-0-0-0-0-0-0-0-|

G:-2--2--2-2-2-2-2-2-2-2-2-2-2--1-1-1-1-1-1-1-1-1-1-1-1-1-1-1-1-1-1-1-|

D:-2--2--2-2-2-2-2-2-2-2-2-2-2--2-2-2-2-2-2-2-2-2-2-2-2-2-2-2-2-2-2-2-|

A:-0--0--0-0-0-0-0-0-0-0-0-0-0--2-2-2-2-2-2-2-2-2-2-2-2-2-2-2-2-2-2-2-|

E:------------------------------0-0-0-0-0-0-0-0-0-0-0-0-0-0-0-0-0-0-0-|

e:------------------------------------------2-2-2-2-2-2-|

B:-2--2-2-2-2-2-2-2-2-----2-2-2-------------3-3-3-3-3-3-|

G:-2--2-2-2-2-2-2-2-2-----2-2-2--2--2-2-----2-2-2-2-2-2-|

D:-2--2-2-2-2-2-2-2-2-----2-2-2--1--1-1--0--0-0-0-0-0-0-|

A:-0--0-0-0-0-0-0-0-0--0---------2--2-2-----------------|

E:------------------------------------------------------|

e:-0-0-0-0-0-0-0-0-0-0-0-0-|

B:-0-0-0-0-0-0-0-0-0-0-0-0-|

G:-1-1-1-1-1-1-1-1-1-1-1-1-|

D:-2-2-2-2-2-2-2-2-2-2-2-2-|

A:-2-2-2-2-2-2-2-2-2-2-2-2-|

E:-0-0-0-0-0-0-0-0-0-0-0-0-|

e:--------------------|

B:-2--2-2-2-2-2-2-2-2-|

G:-2--2-2-2-2-2-2-2-2-|

D:-2--2-2-2-2-2-2-2-2-|

A:-0--0-0-0-0-0-0-0-0-|

E:--------------------|

this is from the movie wag the dog

Get this song at:  amazon.com sheetmusicplus.com

Share your thoughts

0 Comments found