Willie Nelson

Willie Nelson - Seven Spanish Angels(very Easy ) intro guitar tab

Seven Spanish Angels

Willie and Ray Charles

Ok. I got the chords from this site and I saw the other

intro and its great. This is something I kinda figured out

and I know its not exactly the way Willie plays it, but I think it

sounds good, and leaves you right at the starting D, so if youre

playing it alone it flows well.

e-2-2-2-3-5-5--55-3-2-0-2-------------------

b-3-3-3--------------------3---3-3-2-2-0-0--

g-------------------------------------------

d-------------------------------------------

a-------------------------------------------

E-------------------------------------------

e----------------2h3r2----------------------

b---0-0-------------------------------------

g---------2-2-------------------------------

d-------------------------------------------

a-------------------------------------------

E-------------------------------------------

Thats how I play it. Easy. Enjoy.

Get this song at:  amazon.com sheetmusicplus.com

Share your thoughts

0 Comments found