Willie Nelson

Willie Nelson - Seven Spanish Angels intro guitar tab

Seven Spanish Angels

Willie Nelson

Intro:

e-5-5-6-8-----8--8--8--6-5-3-5-------------------------------------

b-6-6-8-10----10-10-10-8-6-5-6-6----6--6--5--5--3--3----3--3-------

g------------------------------7----7--7--5--5--3--3----3--3--5--5-

d-------------------------------------------------------------7--7-

a------------------------------------------------------------------

E------------------------------------------------------------------

e-5-6p5-----------

b-------6---------

g---------7-7-5---

d-----------------

a-----------------

E-----------------

Get this song at:  amazon.com sheetmusicplus.com

Share your thoughts

0 Comments found