Willie Nelson

Willie Nelson - Red Headed Stranger bass tab

Red Headed Stranger

Willie Nelson

----------------------------------------------

----------------------7-----------4-5---------

-5-0-5-0-5-0-5-0-5-0-7--0-2-4-5-5-----5-7-7-0-

----------------------------------------------

-----------7-------------------------------------

---------7---7------7-----------4-5--------------

-0-2-4-5-------5-5-7--0-2-4-5-5-----5-0--0-2-4-5-

-------------------------------------------------

Chorus

N.H.

---------------------------------------------------------

-----4-5---------------------7-4-5---5-----7-------------

-5-7---------025-0-5-5-4-2-0-------5-----5---5-0-0-2-4-5-

---------023---------------------------3-----------------

-------------

-5-4----5-4-

------5-----

------------

Verse 2

-----7---------------------------------------------

---7---7-----------------5-------------------------

-5-------5-5-0-0-2-4-5-5---5-7---0-0-2-4-----------

-------------------------------0-------------------

-----7-------------------------------------

---7---7------7-----------45-4-------------

-5-------5-5-7--0-2-4-5-5------50-0-2-4-5--

-------------------------------------------

Chorus (very minor changes)

Verse 3

--------------------------------------------

--------------7-----------45----------------

-----5-----5-7--0-2-4-5-5----5-7---0-0-2-4--

-5-5---5-5-----------------------0----------

---------7---------------------------------

---7---7------7-----------4-5--------------

-5---5-----5-7--0-2-4-5-5-----5-0-0-2-4----

-------------------------------------------

Chorus 3

----------------------------------------------------------------------

-----4-5-----------------------------4-5-5-----------------5-4---5-4--

-5-7---------025-0-5-5-4-2-0-----5h7--------5-0--0-0-2-4-5-----5------

---------023-----------------5h7--------------------------------------

Verse 4

-------------------------------------------

-------7-----------------45----------------

-----5-----5---0-2-4-5-5----5-7---0-0-2-4--

-5-5-----5---5------------------7----------

--------------------------------------------

-------7------7-----------45----------------

-5-5-5---5-5-7--0-2-4-5-5----5-0-0-2-4-5----

--------------------------------------------

CHorus 4

-------------------------------------------------------------

-----4-5-----------------------4-5---5-----------------------

-5-7---------025-0-5-5-4-2-0-0-----5-----5-5-4-5-2-0-0-2-4-5-

---------023---------------------------3---------------------

-------------

-5-4----5-4-

------5-----

------------

Get this song at:  amazon.com sheetmusicplus.com

Share your thoughts

0 Comments found