Willie Nelson

Willie Nelson - On The Road Again2 solo guitar tab

e-----3h4---4s3s4---5-4-2-0----4-4-4---

--------------------------------------

--4-4---------------------------------

--------------------------------------

--------------------------------------

--------------------------------------

e--4s3s4--5-4-2-0---4-2-2-1-2--2---4--5-5-5-5--4--2-2----------

-------------------------------------------------------4-5----

--------------------------------------------------------------

--------------------------------------------------------------

--------------------------------------------------------------

--------------------------------------------------------------

not sure if I’m right, but it sounds pretty good.

Get this song at:  amazon.com sheetmusicplus.com

Share your thoughts

0 Comments found