Willie Nelson

Willie Nelson - Night Life ( , ) lead guitar tab

From the CD Willie Nelson Certified Hit's

Don't rate this tab I need to change a few things that I left out

I will get to it soon.

Intro

e-12-12-12--13--13-----------------12-12-12-13--------------

b-13-13-13--14--14-14-14-14/15-15--13-13-13-14--14-14/15-15-

g------------------15-15-15/16-16---------------15-15/16-16-

d-----------------------------------------------------------

a-----------------------------------------------------------

E-----------------------------------------------------------

solo 1

e-----------------------------------------------------------

b-----------------------------------------------------------

g--------10-12-12-12-12-12-12-12-12-12-12-------------------

d-9/11-11---------------------------------------------------

a-----------------------------------------------------------

E-----------------------------------------------------------

e-----------------------------------------------------------

b-----------------------------------------------------------

g--------10-12-12-12-10-10-10-------------8-----------------

d-9/11-11---------------------/11-10-9-8--9-----------------

a-----------------------------------------------------------

E-----------------------------------------------------------

solo 2

e------------------------------------------10--10--10-------

b------------------------------/10-10-10-12--12--12--10-----

g-----9-11-11br------9-11-11br------------------------------

d-9-11-----------9-11---------------------------------------

a-----------------------------------------------------------

E-----------------------------------------------------------

solo 3

e-----------------------------------------------------------

b-----------------------------------------------------------

g-----9-11-11-12-----9-12-12-12-12-12-12-12-12-12-12-12-9-9-

d-9-11-----------9-11---------------------------------------

a-----------------------------------------------------------

E-----------------------------------------------------------

e-----------------------------------------------------------

b-----------------------------------------------------------

g-9---------------------------------------------------------

d---11-11-10-9----------------------------------------------

a-----------------------------------------------------------

E-----------------------------------------------------------

solo 4 same as 2

ending

e-----------------------------------------------------------

b-----------------------------------------------------------

g-----9-11-12-11-9---------7--8--9--------------------------

d-9-11------------12-10-9--8--9--10-------------------------

a-----------------------------------------------------------

E-----------------------------------------------------------

Get this song at:  amazon.com sheetmusicplus.com

Share your thoughts

0 Comments found