Willie Nelson

Willie Nelson - Mendocino County Line lead guitar tab

heres the signature riff from the song

--------------------------------------------------

------------9/11----------------9/11---9/11\9-----

------8----10/12--10p8-------8-10/12--10/12\10----

-8-10---10--------------8-10----------------------

--------------------------------------------------

--------------------------------------------------

-----------------------

-----------------------

------8-10/12-12-10-8--

-8-10------------------

-----------------------

-----------------------

Get this song at:  amazon.com sheetmusicplus.com

Share your thoughts

0 Comments found