Willie Nelson

Willie Nelson - Me And Bobby Mcgee lead guitar tab

The very beginning of this isn't exactly what is played by Willie Nelson on the recording

but it is based on it and close enough. (He hammers on and pulls off and plays it behind his

back but if you can figure out what he's doing, please let me know :) ) But for the most

part this is accurate. Let me know what you think...corrections are welcome.

********************************************************************************************

b = bend

e------------------------------------------------------------------------------e

B------------------------------------------------------------------------------B

G--14-14-14-14-14--------14-14-14--------14-14-14-14-14------------------------G

D--14-14-14-14-14-12-11--14-14-14-12-11--14-14-14-14-14-11-12-11-9b9b9b9b------D

A------------------------------------------------------------------------------A

E------------------------------------------------------------------------------E

e------------------------------------------------------------------------------e

B------------------------------------------------------------------------------B

G--7-7-7-7-7-6-4--7-7-7-6-4--7-7-7-7-6-4-2-9-6---------------------------------G

D------------------------------------------------------------------------------D

A------------------------------------------------------------------------------A

E------------------------------------------------------------------------------E

e------------------------------------------------------------------------------e

B---------------------------------------9-9-9-11-12-12-12-12-11-9-7------------B

G--14-14-14-14-14--------14-14-14----------------------------------------------G

D--14-14-14-14-14-12-11--14-14-14-12-11----------------------------------------D

A------------------------------------------------------------------------------A

E------------------------------------------------------------------------------E

e------------------------------------------------------------------------------e

B------------------------------------------------------------------------------B

G--14-14-14-14-14-14-13-11\9---------------------------------------------------G

D-------------------------------12-11-12-14-12-11-11b-9b9b9b9b-11-12-12-11-9-7-D

A------------------------------------------------------------------------------A

E------------------------------------------------------------------------------E

enjoy :)

mammycc_05@yahoo.com

Get this song at:  amazon.com sheetmusicplus.com

Share your thoughts

0 Comments found