Willie Nelson

Willie Nelson - It Always Will Be (fingerpicking) guitar tab

Fingerpicking for It Always Will Be

This is fairly easy as it is the same pattern over and over.

I will show it by the chords you play.

Repeat pattern throughout song.

C Chord

E---------0--------|

B-----1-------1----|

G---0---0---0---0--|

D------------------|

A-3----------------|

E------------------|

F Chord

E----------1-------|

B------1-------1---|

G----2---2---2---2-|

D--3---------------|

A------------------|

E------------------|

G Chord

E---------3--------|

B-----0-------0----|

G---0---0---0---0--|

D------------------|

A------------------|

E-3----------------|

Get this song at:  amazon.com sheetmusicplus.com

Share your thoughts

0 Comments found