Willie Nelson

Willie Nelson - I Still Can't Believe That You're Gone solo guitar tab

I Still Can't Believe That You're Gone solo:

e-------------------------------------------------

b-12-12--12--12-14----9---------------------------

g----------13-----13----11-11/9-9-9-11p9---9------

d----------------------------------------11--11/9-

a-------------------------------------------------

e-------------------------------------------------

e-----------------------------------------------

b--------------------------12-12-10-10-9-9-7-7--

g--9-13^13-13^(13)-11-9-------------------------

d-9----------------------/13-13-11-11-9-9-7-7---

a-----------------------------------------------

e-----------------------------------------------

e---------------------------------

b-12-12-10-10-10-9-9-9-7-7-7/5-5--

g-13-13-11-11-11-9-9-9-8-8-8/6-6--

d---------------------------------

a---------------------------------

e---------------------------------

e--------------------------------------

b--------------------------------------

g--9-11/13-13-13^(13)-11--13^(13)-11-9-

d-9-9----------------------------------

a--------------------------------------

e--------------------------------------

Get this song at:  amazon.com sheetmusicplus.com

Share your thoughts

0 Comments found