Willie Nelson

Willie Nelson - I Protect The American Dream guitar tab

i protect the american dream

willie nelson

TRANSCRIBED BY RUDY GUZMAN

guzman_84@hotmail.com

-----this is from the movie wag the dog----

e:-0-0-0-0-0-0-0------------------------------------|

B:-0-0-0-0-0-0-0---5-5-5-5--5-5-5-5-5--5-----5------|

G:-1-1-1-1-1-1-1---5-5-5-5--4-4-4-4-4----4-----4----|

D:-2-2-2-2-2-2-2---7-7-7-7--6-6-6-6-6------6-----6--|

A:-2-2-2-2-2-2-2------------------------------------|

E:-0-0-0-0-0-0-0------------------------------------|

da da da da da da

e:-0-----0-0-0-0-----------------------|

B:-0-----0-0-0-0---5-5-5-5-5-5--5------|

G:-1-1-1-1-1-1-1---5-5-5-5-5-5--4------|

D:-2-2-2-2-2-2-2---7-7-7-7-7-7--6------|

A:-2-2-2-2-2-2-2---7-7-7-7-7-7---------|

E:-0-0-0-0-0-0-0-----------------------|

e:-0-0-0-0-0-0-0------------------------------------|

B:-0-0-0-0-0-0-0---5-5-5-5--5-5-5-5-5--5-----5------|

G:-1-1-1-1-1-1-1---5-5-5-5--4-4-4-4-4----4-----4----|

D:-2-2-2-2-2-2-2---7-7-7-7--6-6-6-6-6------6-----6--|

A:-2-2-2-2-2-2-2------------------------------------|

E:-0-0-0-0-0-0-0------------------------------------|

da da da da da da

e:-0-----0-0-0-0-----------------------|

B:-0-----0-0-0-0---5-5-5-5-5-5--5------|

G:-1-1-1-1-1-1-1---5-5-5-5-5-5--4------|

D:-2-2-2-2-2-2-2---7-7-7-7-7-7--6------|

A:-2-2-2-2-2-2-2---7-7-7-7-7-7---------|

E:-0-0-0-0-0-0-0-----------------------|

this is from the movie wag the dog

Get this song at:  amazon.com sheetmusicplus.com

Share your thoughts

0 Comments found