Willie Nelson

Willie Nelson - Horse Called Music intro guitar tab

(D) (G) (A)

e------0-5-7-5------0-0h2--------0-0h2--------------------

B----7---------7--3-------3----3-------3~----0-3-0--2-0-2-

G----7------------0---------2--0--------------------2-----

D----7------------0------------0--------------------2-----

A----5------------2------------2--------------------0-----

E----5------------3------------3--------------------0-----

(broken D)

--------------5--||

------------7----||

----------7------|| ...High on a Mountain....

--------7--------||

------5----------||

----5------------||

...i personally recommend holding each chord while you play the other little

notes, just to decrease the noise between transfers...and it is possible to use

the regular D chord instead of the barr chord if you have longer fingers..

..my first tab, so i'd enjoy feedback

Get this song at:  amazon.com sheetmusicplus.com

Share your thoughts

0 Comments found