Willie Nelson

Willie Nelson - Help Me Make It Through The Night solo guitar tab

this lead is not with the song, but it sounds good when its

played on your own

e----------------------------------------------------------

B--------------7---------------------------7---------------

G-----------7-----9--7------------------7-----9--7--6------

D-----7--9--------------9--7------7--9-----------------9---

A---9---------------------------9--------------------------

E----------------------------------------------------------

e--------------------------------^-------------------------

B-----------7--8--7------------7_|-10--7-------------------

G-----7--9-----------9--7--6--------------9--7----7--------

D---9-------------------------------------------9----------

A----------------------------------------------------------

E----------------------------------------------------------

Get this song at:  amazon.com sheetmusicplus.com

Share your thoughts

0 Comments found