Willie Nelson

Willie Nelson - Devil In A Sleepin' Bag intro guitar tab

Devil In A Sleepin' Bag Intro:

e-------5-5-7-5----------------------------------

b--3-5-7-7-----7-5-3--3-3-3--3-3-3-3-3-3-3-7-6-5-

g-2----------------------------------------------

d------------------------------------------------

a------------------------------------------------

e------------------------------------------------

e----------5------------------------------------------------

b-----5h6h7-7-5-3/-3/-3-3-3-3-3-3-3--3-5-7--3-5-7^--5-6-7^--

g-4-2-------------------------------------------------------

d-----------------------------------------------------------

a-----------------------------------------------------------

e-----------------------------------------------------------

e---------------

b-5-3-5^-3-3-3--

g---------4-4-2-

d---------------

a---------------

e---------------

Get this song at:  amazon.com sheetmusicplus.com

Share your thoughts

0 Comments found