Willie Nelson

Willie Nelson - Denver bass tab

Denver

Willie Nelson

---------------------------------------------------------------

--------------------7------------------------------------------

-----5---------5------5-----7---5-0-2-4-5-5-5-0-50-0---0-50----

-5-0---5-5-0-5--5-5-----5-5---5----------------------0---------

----------------------------------

----------------------------------

-0-0-2-4-5-0-50-0---0-50-0---0-50-

------------------0--------0------

Get this song at:  amazon.com sheetmusicplus.com

Share your thoughts

0 Comments found