Willie Nelson

Willie Nelson - Crazy Arms guitar tab

Crazy Arms

Willie Nelson (Various Live Concerts)

Verse1 - Chorus - Inst – Cho(optional) - Verse2 - Cho - Tag

D D7 G D

1. Now blue ain't the word, for the way that I feel

2. So please take the treasured dreams I had for you & me

A - A7 - A

1. And the storms brewing in this heart of mine

2. And take, all the love I thought was mine

D D7 G D

1. This, ain't no crazy dream I know, that it's real

2. Some-day my crazy arms will hold, somebody new

A D - G - D

1. You're someone else's love now, your not mine

2. But now, I'm just lonely, all the time

CHORUS:

D D7 G D

Crazy, arms, that reach to hold, somebody new,

A - A7 - A

For my yearning heart keeps saying your not mine

D D7 G D

My troubled mind knows soon, to another, you'll be wed

A D - G - D

And that's why I'm lonely all the time

[inst]

D D7 G D A A7 A

5--5-5-7-8--8-7-5---------------------5-5-7-5--------------

------------------8-8-8---------5-7-7---------8-7-5--------

------------------------5-7---7---------------------7-7-7-6

-----------------------------------------------------------

-----------------------------------------------------------

-----------------------------------------------------------

D D7 G D A D

5---5-5-7-8--8-7-5---------------------5------------

-------------------8-8-8---------5-7-7---7-8-5-----7

-------------------------5-7---7---------------7-6-7

---------------------------------------------------7

----------------------------------------------------

----------------------------------------------------

Tag:

A D - G - D

And that's why I'm lonely all the time

Get this song at:  amazon.com sheetmusicplus.com

Share your thoughts

0 Comments found