Willie Nelson

Willie Nelson - Blues Eyes Crying In The Rain2 solo guitar tab

Blue Eyes Crying in the Rain

Willie Nelson

Solo:

e-2/4-----4b--4-------4b--4--4------------7----6--5---4--2-----5------

b-------------------5-----------5-------9----8----7-------------------

g-----------------4-----------------------------------------4---------

d---------------------------------------------------------------------

a---------------------------------------------------------------------

E---------------------------------------------------------------------

e-7---7-------------2--2/4--4-4-4b--4--------2--4-4b--4---------------

b-----9-----------5------------------------5------------5-------------

g--------------/4------------------------4----------------------------

d---------------------------------------------------------------------

a---------------------------------------------------------------------

E---------------------------------------------------------------------

e-------2h4p2--4--2--4p2-2-----2/4\2----------------------------------

b---5p3------------------------------5-5--------4--------3---------3--

g-4-------------------------4----------------2--------1----------0----

d---------------------------------------------------------------------

a------------------------------------------3--------2--------2-1-----1

E---------------------------------------------------------------------

Get this song at:  amazon.com sheetmusicplus.com

Share your thoughts

0 Comments found