Willie Nelson

Willie Nelson - Blue Skies solo guitar tab

Willie Nelson

Blue Skies solo

Here it is. I think its pretty much right on but

im not really sure.

-------------------------------------------

-0-0-0--7--5-3-5-7--3h5-3h5-7----0-3-------

------------------------------2-2----------

-------------------------------------------

-------------------------------------------

-------------------------------------------

-------------------------------------------

-1-1-1-0--7--5-3-5-7--7-5-3-5-7-10-----0-3-

-----------------------------------2-2-----

-------------------------------------------

-------------------------------------------

-------------------------------------------

-------------------------------------------

-3-5-7-8-10--11-10-8-10--8-7-5-7--5-3-2-3--

------------------------------------------- x2

-------------------------------------------

-------------------------------------------

-------------------------------------------

-------------------------------------------

-2h0-7--5-3-5-7--7h5-3-5-7------0-3--------

---------------------------2--2------------

-------------------------------------------

-------------------------------------------

-------------------------------------------

And there it is. If any comments or corrections,

feel free to say.

-Kelly-

Get this song at:  amazon.com sheetmusicplus.com

Share your thoughts

0 Comments found