Willie Nelson

Willie Nelson - Blue Rock Montana bass tab

Blue Rock Montana

WIllie Nelson

-------------------------------------------------------

-9------------7-7-------7------------7------7----------

---7/-0-0-4-5-----7---7---7-X4-----5---7-5----5--7---7-

--------------5-----5----------5-5--------5----5---5---

------------------------------------------------------

----------------------7-------------------------------

-5--7-----45---7-5------7---7-X4---7-----4-5---7-05---

--5---5-5----5----5-5-----5------5---5-5-----5--------

-----------------------------

-------------7---------------

---7---7---7---7-5--7---7----

-5---5---5--------5---5---5--

Red Headed Stranger

----------------------------------------------

-----------------------9------------------7---

-0-2-3-5-5-0-0-0-0-5-7----5-5-0-7-0-5-0-7-----

-------------------------7--------------------

Get this song at:  amazon.com sheetmusicplus.com

Share your thoughts

0 Comments found