Willie Nelson

Willie Nelson - Blue Eyes Crying In The Rain solo guitar tab

Blue Eyes Crying In The Rain solo - Willie Nelson - TeleTickler6@netscape.net

E--|---------------------------------------|---------------------------------------------|--

B--|--------7--7h9--9b--9--------10--9-----|------12------11--10--9--7-----10--12--9h12--|--

G--|-----9--------------------9---------9--|--13------12------11-------------------------|--

D--|--9--------------------9---------------|----------------------------9----------------|--

A--|---------------------------------------|---------------------------------------------|--

E--|---------------------------------------|---------------------------------------------|--

E--|------------------------------------|---------------------------------------|--

B--|--------7--7h9--9b--9--------10--9--|--------9p7--9--7--9--7-----7/9--7-----|--

G--|-----9--------------------9---------|-----9------------------------------9--|--

D--|--9--------------------9------------|--9----------------------9-------------|--

A--|------------------------------------|---------------------------------------|--

E--|------------------------------------|---------------------------------------|--

*On the 2nd part of solo, there's more picking - listen for timing*

Get this song at:  amazon.com sheetmusicplus.com

Share your thoughts

0 Comments found