Willie Nelson

Willie Nelson - Blue Eyes Crying In The Rain (in E) guitar chord

Willie Nelson

Blue Eyes Crying in the Rain (in E)

E (walkdown 1)

IN THE TWILIGHT GLOW I SEE

B7 E

BLUE EYES CRYING IN THE RAIN

(walkdown 1)

WHEN WE KISSED GOODBYE AND PARTED

B7 E (walkdown 2)

I KNEW WE'D NEVER MEET AGAIN

(verse 1:)

A (walkdown 3)

LOVE IS LIKE A DYING EMBER

E B7 (walkdown 4)

ONLY MEMORIES REMAIN

E (walkdown 2)

AND THROUGH THE AGES I'LL REMEMBER

B7 E

BLUE EYES CRYING IN THE RAIN

(Solo)

(verse 2:)

A (walkdown 3)

SOMEDAY WHEN WE MEET UP YONDER

E B7 (walkdown 4)

WELL STROLL HAND IN HAND AGAIN

E (walkdown 1)

AND IN A LAND THAT KNOW NO PARTING

B7 E

BLUE EYES CRYING IN THE RAIN

(Outro)

E B7 A

e----0---0- e----2---2- e----0---0-

B----0---0- B----0---0- B----2---2-

G----1---1- G----2---2- G----2---2-

D----2---2- D----1---1- D----2---2-

A----2-2-2- A--2-2---2- A--0-0---0-

E--0-----0- E------2--- E------0---

Walkdown 1 (E to B7)

e----0-------2-

B----0-------0-

G----1-------2-

D----2-------1-

A--2-2-0-1-2-2-

E----0---------

Walkdown 2 (E to A)

e----0---------0-

B----0---------2-

G----1---------2-

D----2---------2-

A----2-------0-0-

E--0-0-1-2-4-----

Walkdown 3 (A to E)

e----0-------0-

B----2-------0-

G----2-------1-

D----2-------2-

A--0-0-------2-

E------4-2-0-0-

Walkdown 4 (B7 to E)

e----2---------------0-

B----0---------------0-

G----2---------------1-

D----1---------------2-

A--2-2-0h2-2-0-------2-

E--------------4-2-0-0-

Outro

e-----0-----0-------0-

B------0-----2-----0--

G-----------------1---

D---------2------2----

A----2---0------2-----

E---0----------0------ (let ring)

Get this song at:  amazon.com sheetmusicplus.com

Share your thoughts

0 Comments found