Willie Nelson

Willie Nelson - Blue Eyes Crying In The Rain guitar chord

Blue Eyes Crying in the Rain

Written by Fred Rose

Performed by Willie Nelson

tabbed by Keith McPherson (keith.mcpherson@cgiusa.com)

Only 3 Chords: E, B7, and A

Willie uses simple strums for each like this:

E B7 A

1E---0-0---0-0 1E---2-2---2-2 1E---0-0---0-0

2B---0-0---0-0 2B---0-0---0-0 2B---2-2---2-2

3G---1-1---1-1 3G---2-2---2-2 3G---2-2---2-2

4D---2-2---2-2 4D---1-1---1-1 4D---2-2---2-2

5A---2-2-2-2-2 5A-2-2-2---x-x 5A-0-0-0---0-0

6E-0-0-0---0-0 6E-------2-2-2 6E---0-0-0-0-0

DnUp D U D U D U D U D U

Runs:

h=Hammer On

Run1:

5A-0-1-2

Run2:

5A--------0

6E-0-1-2-4--

Run3:

5A-0h2-2-0------

6E---------4-2-0

Run4:

6E-4-2-0

(E) In the twilight glow I see her (Run1)

(B7) Blue Eyes Crying in the (E)Rain

When we kissed goodbye and parted (Run1)

(B7) I knew we'd never meet a(E)gain (Run2)

(A) Love is like a dying ember (Run4)

(E) Only memories Re(B7)main (Run3)

(E) And through the ages I remember (Run1)

(B7) Blue Eyes Crying in the (E) Rain

Solo:

/=Slide

B=Bend 1/2 step

1E--0-2-2/4-4B-4----0-5-4-0----7---6--5-4-2-----7--

2B-0---------------0----------9-9-8-8-7-----0-10-9-

3G-------------------------------------------------

4D-------------------------------------------------

5A-------------------------------------------------

6E-------------------------------------------------

1E--0-2-2/4-4-4-4B-4----0-2-2/4-4-0---0--2/4/2-2-4-2--2/4-0-0-

2B-0-------------------0-------------0-0-------------0--------

3G------------------------------------------------------------

4D------------------------------------------------------------

5A------------------------------------------------------------

6E------------------------------------------------------------

Then make this run back into the A for the next verse

1E-------------------------

2B-------------------------

3G-----8------7------6-----

4D----7------6------5------

5A-------------------------

6E-7-8--8---7--7---6--6--5-

(A) Someday when we meet up yonder (Run4)

(E) We'll stroll hand in hand a(B7)again (Run3)

(E) And in the land that knows no parting (Run1)

(B7) Blue Eyes crying in the (E)rain

Ending Run:

1E---0----0-------0---

2B----0----2-----0----

3G--------------1-----

4D-------2-----2------

5A--2---0-----2------

6E-0---------0-------

Get this song at:  amazon.com sheetmusicplus.com

Share your thoughts

0 Comments found