Willie Nelson

Willie Nelson - Blue Eyes Crying In The Rain Complete (in E) guitar tab

blue eyes crying the rain(in E) by willie nelson

run 1

E------------

B------------

G------------

D------------

A-0-1-2------

E------------

run 2

E-----------

B-----------

G-----------

D-----------

A---------0-

E-0-1-2-4---

run 3

E----------

B----------

G----------

D----------

A----------

E--4-2-0---

run 4

E---------------

B---------------

G---------------

D---------------

A-0h2-2-0-------

E---------4-2-0-

E run 1

in the twilight glow i see her

B7 E

blue eyes crying in the rain

run 1

when we kissed goodbye and parted

B7 E run 2

i knew we'd never meet again

A run 3

love is like a dying ember

E B7 run 4

only memories remain

E run 1

and through the ages i'll rember

B7 E

blue eyes crying in the rain

p= pull off

/= slide

h= hammer on

b= bend

solo

E--2/4----2b-----2--2b-2-2-----------7---6---5----4----2----5/7--7-----

B------------------5------5----------9---8---6------------------------9

G-----------------4---------------------------------------4------------

D----------------------------------------------------------------------

A----------------------------------------------------------------------

E----------------------------------------------------------------------

E----------2-4-4b--4-4-----2h4-4-4p2-2/4-4\2----------------------------

B---------5-------------5p2-------------------5-5------4-----3-----3----

G---8\5-4--------------4------------4----------------2-----1------0-0---

D-----------------------------------------------------------------------

A--------------------------------------------------3-----2-----2-1---1-2

E-----------------------------------------------------------------------

A run 3

someday when we meet up yonder

E B7 run 4

we'll stroll hand in hand again

E run 1

and in the land that knows no parting

B7 E

blue eyes crying in the rain

for the end i just pick the E B7 E chords slowly

this is my first tab so comments welcome. the solo

is pretty close to willie's so any blatent errors

are just mix ups translation. also i use a barre A chord

Get this song at:  amazon.com sheetmusicplus.com

Share your thoughts

0 Comments found